arp sequence1

(/) Slide Up  (\) Slide Down  (h) Hammer On  (p) Pull Off  (b) Bend (r) Release (v) Vibrato

E|--22--19------19----------------------19--22--19------19----------
B|----------20------20--------------20--------------20------20------
G|----------------------19------19------------------------------19--
D|--------------------------21--------------------------------------
A|------------------------------------------------------------------
E|------------------------------------------------------------------



E|--21--17------17----------------------17--21--17------17----------
B|----------19------19--------------19--------------19------19------
G|----------------------18------18------------------------------18--
D|--------------------------19--------------------------------------
A|------------------------------------------------------------------
E|------------------------------------------------------------------



E|--19--15------15----------------------15--19--15------15----------
B|----------17------17--------------17--------------17------17------
G|----------------------16------16------------------------------16--
D|--------------------------17--------------------------------------
A|------------------------------------------------------------------
E|------------------------------------------------------------------



E|--17--14------14----------------------14--17--14------14----------
B|----------15------15--------------15--------------15------15------
G|----------------------14------14------------------------------14--
D|--------------------------16--------------------------------------
A|------------------------------------------------------------------
E|------------------------------------------------------------------
http://www.guitartabcreator.com
Guitar Tab Creator is intended to store guitar tab created through the tool. It currently does not support in-line text editing. Any text you place in here will be lost. If you need to comment on your tab, please use the "Tab Notes" section located below.