Firstsongsolo

(/) Slide Up  (\) Slide Down  (h) Hammer On  (p) Pull Off  (b) Bend (r) Release (v) Vibrato


E|----------------------------------------------------------------------------------------
B|--------5--------7--------9--12--11--9------9--11--9------------5--------7--------9/12--
G|----------------------------------------12------------12--------------------------------
D|----------------------------------------------------------------------------------------
A|--3--3-----5--5-----7--7----------------------------------3--3-----5--5-----7--7--------
E|----------------------------------------------------------------------------------------



E|------------------------------------------------------------------------------------------------
B|--------8--7-----------7--8-----------12--10--8--10--8--10/12/15--------8--7-----------7--8-----
G|--5--5--------7--4--4--------7--9--9------------------------------5--5--------7--4--4--------7--
D|------------------------------------------------------------------------------------------------
A|------------------------------------------------------------------------------------------------
E|------------------------------------------------------------------------------------------------



E|----------------------------------------------------------------------------------------------------
B|--------12--10--8--10--8--10/12/15--17--15----------------------------------------------------------
G|--9--9--------------------------------------16--14--16--------------------------------------12--14--
D|--------------------------------------------------------17--16--14--17--16--12--14--12--14----------
A|----------------------------------------------------------------------------------------------------
E|----------------------------------------------------------------------------------------------------



E|----------------------------------------------------------------------------------------------
B|--17--15--17--12--------------------------------------------------------------16------16--17--
G|------------------------------------------------------14------16--14--17--16------17----------
D|------------------17--16--14--17--16--17--16--17--16------17----------------------------------
A|----------------------------------------------------------------------------------------------
E|----------------------------------------------------------------------------------------------



E|------------------------------------------------------------------------------------
B|--17--17--17--17--17--17--17--17--16--17--16--17--17--17--17--17--17--17--17--17----
G|------------------------------------------------------------------------------------
D|----------------------------------------------------------------------------------9r
A|----------------------------------------------------------------------------------7-
E|------------------------------------------------------------------------------------
http://www.guitartabcreator.com
Guitar Tab Creator is intended to store guitar tab created through the tool. It currently does not support in-line text editing. Any text you place in here will be lost. If you need to comment on your tab, please use the "Tab Notes" section located below.