Creative music

(/) Slide Up  (\) Slide Down  (h) Hammer On  (p) Pull Off  (b) Bend (r) Release (v) Vibrato
E|--------------------------------------------------------------------------------------------------
B|-----7--------7--------7--------7--------6--------6--------6--------6-----------6--------6--------
G|--------8--------8--------8--------8--------8--------8--------8--------8-----------7--------7-----
D|-----------8--------8--------8--------8--------8--------8--------8--------8--8--------8--------8--
A|--6-----------------------------------------------------------------------------------------------
E|--------------------------------------------------------------------------------------------------



E|--------------------------------------------------------------------------------------------
B|--6--------6--------8--------8--------8--------8--------------------------------------------
G|-----7--------7--------7--------7--------7--------7-----7--------7--------7--------7--------
D|--------8--------8--------8--------8--------8--------8-----8--------8--------8--------8-----
A|--------------------------------------------------------------8--------8--------8--------8--
E|--------------------------------------------------------------------------------------------



E|--------------------------------------------------------------------------------------------------
B|--------------------------------------7--------7--------7--------7--------7--7--7--7--7--7--7--7--
G|--6--------6--------6--------6-----------8--------8--------8--------8-----8--8--8--8--8--8--8--8--
D|-----8--------8--------8--------8-----------8--------8--------8--------8--8--8--8--8--8--8--8--8--
A|--------8--------8--------8--------8--------------------------------------6--6--6--6--6--6--6--6--
E|--------------------------------------------------------------------------------------------------



E|---------------------------------------------------------------------------------------
B|--7--7--6--------6--------6--------6---------------------6--6--6--6--6--6--6--6--6--6--
G|--8--8-----7--------7--------7---------------------------7--7--7--7--7--7--7--7--7--7--
D|--8--8--------8--------8--------8-----8------------------8--8--8--8--8--8--8--8--8--8--
A|--6--6---------------------------------------------------------------------------------
E|---------------------------------------------------------------------------------------
http://www.guitartabcreator.com
Guitar Tab Creator is intended to store guitar tab created through the tool. It currently does not support in-line text editing. Any text you place in here will be lost. If you need to comment on your tab, please use the "Tab Notes" section located below.