Untitled Song Verse 1 & 2 #1

(/) Slide Up  (\) Slide Down  (h) Hammer On  (p) Pull Off  (b) Bend (r) Release (v) Vibrato


E|--0------|
B|--1------|
G|--2------|
D|--2--X8--|
A|--0------|
E|--0------|

E|--3------|
B|--3------|
G|--0------|
D|--0--X8--|
A|--2------|
E|--3------|

E|--0------|
B|--3------|
G|--0------|
D|--2--X8--|
A|--0------|
E|--0------|

E|--0------|
B|--1------|
G|--0------|
D|--2--X8--|
A|--3------|
E|--0------|

E|---------|
B|---------|
G|--1------|
D|--2--X8--|
A|--2------|
E|---------|

E|---------|
B|---------|
G|--5------|
D|--5--X8--|
A|--3------|
E|---------|

E|---------|
B|---------|
G|--3------|
D|--3--X8--|
A|--1------|
E|---------|

E|---------|
B|---------|
G|---------|
D|--3--X8--|
A|--3------|
E|--1------|
Guitar Tab Creator is intended to store guitar tab created through the tool. It currently does not support in-line text editing. Any text you place in here will be lost. If you need to comment on your tab, please use the "Tab Notes" section located below.