Untitled Song Chorus 1 & 2 #1

(/) Slide Up  (\) Slide Down  (h) Hammer On  (p) Pull Off  (b) Bend (r) Release (v) Vibrato


E|----------------------|
B|----------------------|
G|--7-7-------7-7-------|
D|--7-7--7-7--7-7--5-5--|
A|--5-5--7-7--5-5--5-5--|
E|-------5-5-------3-3--|

E|----------------------|
B|----------------------|
G|--5-5-------5-5-------|
D|--5-5--5-5--5-5--3-3--|
A|--3-3--5-5--3-3--3-3--|
E|-------3-3-------1-1--|

E|----------------------|
B|----------------------|
G|--3-3-------3-3-------|
D|--3-3--3-3--3-3--4-4--|
A|--1-1--3-3--1-1--4-4--|
E|-------1-1-------2-2--|
Guitar Tab Creator is intended to store guitar tab created through the tool. It currently does not support in-line text editing. Any text you place in here will be lost. If you need to comment on your tab, please use the "Tab Notes" section located below.