"Unknown"

Standard Tuning
*No Capo*

Intro: (Rhythm & Lead Guitar) x2
E|----------------------|
B|----------------------|
G|------------9-9--7-7--|
D|--9-9--7-7--9-9--7-7--|
A|--9-9--7-7--7-7--5-5--|
E|--7-7--5-5------------|

Verse: (Rhythm & Lead Guitar) x2 x2
E|----------------------------------------------------------------------|
B|----------------------------------------------------------------------|
G|------------------------------------9-9-9-9-9-9-9-9--7-7-7-7-7-7-7-7--|
D|--9-9-9-9-9-9-9-9--7-7-7-7-7-7-7-7--9-9-9-9-9-9-9-9--7-7-7-7-7-7-7-7--|
A|--9-9-9-9-9-9-9-9--7-7-7-7-7-7-7-7--7-7-7-7-7-7-7-7--5-5-5-5-5-5-5-5--|
E|--7-7-7-7-7-7-7-7--5-5-5-5-5-5-5-5------------------------------------|

Pre-Chorus: (Rhythm Guitar)
E|----------------------------------------------------|
B|----------------------------------------------------|
G|--------------------5-5-5-5-------------------------|
D|--7-7-7-7--5-5-5-5--5-5-5-5--7-7-7-7--9-9-9-9--9-9--|
A|--7-7-7-7--5-5-5-5--3-3-3-3--7-7-7-7--9-9-9-9--9-9--|
E|--5-5-5-5--3-3-3-3-----------5-5-5-5--7-7-7-7--7-7--|

Pre-Chorus: (Lead Guitar)
E|----------------------------------------------------|
B|----------------------------------------------------|
G|--7-7-7-7--5-5-5-5--3-3-3-3--5-5-5-5--7-7-7-7--9-9--|
D|----------------------------------------------------|
A|----------------------------------------------------|
E|----------------------------------------------------|

Chorus: (Rhythm & Lead Guitar) x2
E|------------------------------------------|
B|------------------------------------------|
G|------------------------------------------|
D|--9-9--x-x--7-7--x-x--5-5--x-x--3-3--x-x--|
A|--9-9--x-x--7-7--x-x--5-5--x-x--3-3--x-x--|
E|--7-7--x-x--5-5--x-x--3-3--x-x--1-1--x-x--|

Repeat Intro
Repeat Verse
Repeat Pre-Chorus
Repeat Chorus

Guitar Solo: [Lead Guitar (Rhythm Guitar Plays Pre-Chorus)]
E|----------------------------------------------------|
B|--7-7-7-7--5-5-5-5--7-7-7-7--1-1-1-1--3-5-3-5--9-9--|
G|----------------------------------------------------|
D|----------------------------------------------------|
A|----------------------------------------------------|
E|----------------------------------------------------|

Rhythm Guitar Plays Intro (No Other Instruments)
Repeat Chorus x2
Repeat Intro
Guitar Tab Creator is intended to store guitar tab created through the tool. It currently does not support in-line text editing. Any text you place in here will be lost. If you need to comment on your tab, please use the "Tab Notes" section located below.