Simple Plan - "You Suck at Love" Rhythm Guitar

(/) Slide Up  (\) Slide Down  (h) Hammer On  (p) Pull Off  (b) Bend (r) Release (v) Vibrato


Intro

e|---------------------------------------------------------|
B|---------------------------------------------------------|
G|----7--7-----7--7-----7--7-----7--7----------------------|x2
D|----7--7-----7--7-----7--7-----7--7----------------------|
A|----5--5-----5--5-----5--5-----5--5----------------------|
E|---------------------------------------------------------|

Verse

e|---------------------------------------------------------------------------|
B|---------------------------------------------------------------------------|
G|---------------------------------------------------------------------------|
D|---7-7-7-7-7-7-7-7-7-7-7-7-7-7-7-7---2-2-2-2-2-2-2-2-2-2-2-2-2-2-2-2-------|
A|---5-5-5-5-5-5-5-5-5-5-5-5-5-5-5-5---0-0-0-0-0-0-0-0-0-0-0-0-0-0-0-0-------|
E|---------------------------------------------------------------------------|


e|---------------------------------------------------------------------------|
B|---------------------------------------------------------------------------|
G|---------------------------------------------------------------------------|
D|---4-4-4-4-4-4-4-4-4-4-4-4-4-4-4-4-----------------------------7-7-7-------|
A|---2-2-2-2-2-2-2-2-2-2-2-2-2-2-2-2---5-5-5-5-5-5-5-5-5-5-5-5-5-7-7-7-------|
E|-------------------------------------3-3-3-3-3-3-3-3-3-3-3-3-3-5-5-5-------|


e|---------------------------------------------------------------------------|
B|---------------------------------------------------------------------------|
G|---------------------------------------------------------------------------|
D|---7-7-7-7-7-7-7-7-7-7-7-7-7-7-7-7---2-2-2-2-2-2-2-2-2-2-2-2-2-2-2-2-------|
A|---5-5-5-5-5-5-5-5-5-5-5-5-5-5-5-5---0-0-0-0-0-0-0-0-0-0-0-0-0-0-0-0-------|
E|---------------------------------------------------------------------------|


e|---------------------------------------------------------------------------|
B|---------------------------------------------------------------------------|
G|---------------------------------------------------------------------------|
D|------------------------------------------------------7-----7--------------|
A|---2-2-2-2-2-2-2-2-2-2-2-2-2-2-2-2---7-7-7-7-7-7-7-7--7-7-7-7--------------|
E|---0-0-0-0-0-0-0-0-0-0-0-0-0-0-0-0---5-5-5-5-5-5-5-5--5-5-5-5--------------|

Chorus

e|---------------------------------------------------------------------------|
B|---------------------------------------------------------------------------|
G|--------------------7-7-7-7-7-7-7-7----------------------------------------|
D|---5-5-5-5-5-5-5-5--7-7-7-7-7-7-7-7--7-7-7-7-7-7-7-7--4-4-4-4-4-4-4-4------|
A|---5-5-5-5-5-5-5-5--5-5-5-5-5-5-5-5--7-7-7-7-7-7-7-7--4-4-4-4-4-4-4-4------|
E|---3-3-3-3-3-3-3-3-------------------5-5-5-5-5-5-5-5--2-2-2-2-2-2-2-2------|

e|---------------------------------------------------------------------------|
B|---------------------------------------------------------------------------|
G|--------------------7-7-7-7-7-7-7-7----------------------------------------|
D|---5-5-5-5-5-5-5-5--7-7-7-7-7-7-7-7---7-7---7-7---7-7---7-7--7-7-7-7-------|
A|---5-5-5-5-5-5-5-5--5-5-5-5-5-5-5-5---7-7---7-7---7-7---7-7--7-7-7-7-------|
E|---3-3-3-3-3-3-3-3--------------------5-5---5-5---5-5---5-5--5-5-5-5-------|

e|---------------------------------------------------------------------------|
B|---------------------------------------------------------------------------|
G|--------------------7-7-7-7-7-7-7-7----------------------------------------|
D|---5-5-5-5-5-5-5-5--7-7-7-7-7-7-7-7--7-7-7-7-7-7-7-7--4-4-4-4-4-4-4-4------|
A|---5-5-5-5-5-5-5-5--5-5-5-5-5-5-5-5--7-7-7-7-7-7-7-7--4-4-4-4-4-4-4-4------|
E|---3-3-3-3-3-3-3-3-------------------5-5-5-5-5-5-5-5--2-2-2-2-2-2-2-2------|

e|---------------------------------------------------------------------------|
B|---------------------------------------------------------------------------|
G|---------------------------------------------------------------------------|
D|---5-5-5-5-5-5-5-5-----7---------------------------------------------------|
A|---5-5-5-5-5-5-5-5-----7---------------------------------------------------|
E|---3-3-3-3-3-3-3-3-----5---------------------------------------------------|

Intro

e|---------------------------------------------------------|
B|---------------------------------------------------------|
G|----7--7-----7--7-----7--7-----7--7----------------------|x2
D|----7--7-----7--7-----7--7-----7--7----------------------|
A|----5--5-----5--5-----5--5-----5--5----------------------|
E|---------------------------------------------------------|

Verse

e|---------------------------------------------------------------------------|
B|---------------------------------------------------------------------------|
G|---------------------------------------------------------------------------|
D|---7-7-7-7-7-7-7-7-7-7-7-7-7-7-7-7---2-2-2-2-2-2-2-2-2-2-2-2-2-2-2-2-------|
A|---5-5-5-5-5-5-5-5-5-5-5-5-5-5-5-5---0-0-0-0-0-0-0-0-0-0-0-0-0-0-0-0-------|
E|---------------------------------------------------------------------------|


e|---------------------------------------------------------------------------|
B|---------------------------------------------------------------------------|
G|---------------------------------------------------------------------------|
D|---4-4-4-4-4-4-4-4-4-4-4-4-4-4-4-4-----------------------------7-7-7-------|
A|---2-2-2-2-2-2-2-2-2-2-2-2-2-2-2-2---5-5-5-5-5-5-5-5-5-5-5-5-5-7-7-7-------|
E|-------------------------------------3-3-3-3-3-3-3-3-3-3-3-3-3-5-5-5-------|


e|---------------------------------------------------------------------------|
B|---------------------------------------------------------------------------|
G|---------------------------------------------------------------------------|
D|---7-7-7-7-7-7-7-7-7-7-7-7-7-7-7-7---2-2-2-2-2-2-2-2-2-2-2-2-2-2-2-2-------|
A|---5-5-5-5-5-5-5-5-5-5-5-5-5-5-5-5---0-0-0-0-0-0-0-0-0-0-0-0-0-0-0-0-------|
E|---------------------------------------------------------------------------|


e|---------------------------------------------------------------------------|
B|---------------------------------------------------------------------------|
G|---------------------------------------------------------------------------|
D|------------------------------------------------------7-----7--------------|
A|---2-2-2-2-2-2-2-2-2-2-2-2-2-2-2-2---7-7-7-7-7-7-7-7--7-7-7-7--------------|
E|---0-0-0-0-0-0-0-0-0-0-0-0-0-0-0-0---5-5-5-5-5-5-5-5--5-5-5-5--------------|

Chorus

e|---------------------------------------------------------------------------|
B|---------------------------------------------------------------------------|
G|--------------------7-7-7-7-7-7-7-7----------------------------------------|
D|---5-5-5-5-5-5-5-5--7-7-7-7-7-7-7-7--7-7-7-7-7-7-7-7--4-4-4-4-4-4-4-4------|
A|---5-5-5-5-5-5-5-5--5-5-5-5-5-5-5-5--7-7-7-7-7-7-7-7--4-4-4-4-4-4-4-4------|
E|---3-3-3-3-3-3-3-3-------------------5-5-5-5-5-5-5-5--2-2-2-2-2-2-2-2------|

e|---------------------------------------------------------------------------|
B|---------------------------------------------------------------------------|
G|--------------------7-7-7-7-7-7-7-7----------------------------------------|
D|---5-5-5-5-5-5-5-5--7-7-7-7-7-7-7-7---7-7---7-7---7-7---7-7--7-7-7-7-------|
A|---5-5-5-5-5-5-5-5--5-5-5-5-5-5-5-5---7-7---7-7---7-7---7-7--7-7-7-7-------|
E|---3-3-3-3-3-3-3-3--------------------5-5---5-5---5-5---5-5--5-5-5-5-------|

e|---------------------------------------------------------------------------|
B|---------------------------------------------------------------------------|
G|--------------------7-7-7-7-7-7-7-7----------------------------------------|
D|---5-5-5-5-5-5-5-5--7-7-7-7-7-7-7-7--7-7-7-7-7-7-7-7--4-4-4-4-4-4-4-4------|
A|---5-5-5-5-5-5-5-5--5-5-5-5-5-5-5-5--7-7-7-7-7-7-7-7--4-4-4-4-4-4-4-4------|
E|---3-3-3-3-3-3-3-3-------------------5-5-5-5-5-5-5-5--2-2-2-2-2-2-2-2------|

e|---------------------------------------------------------------------------|
B|---------------------------------------------------------------------------|
G|---------------------------------------------------------------------------|
D|---5-5-5-5-5-5-5-5-----7---------------------------------------------------|
A|---5-5-5-5-5-5-5-5-----7---------------------------------------------------|
E|---3-3-3-3-3-3-3-3-----5---------------------------------------------------|

Intro

e|---------------------------------------------------------|
B|---------------------------------------------------------|
G|----7--7-----7--7-----7--7-----7--7----------------------|x2
D|----7--7-----7--7-----7--7-----7--7----------------------|
A|----5--5-----5--5-----5--5-----5--5----------------------|
E|---------------------------------------------------------|

Interlude

e|---------------------------------------------------------------------------|
B|---------------------------------------------------------------------------|
G|---------------------------------------------------------------------------|
D|---------------------------------------------------------------------------|
A|---2---------5--------2---------5------------------------------------------|
E|--------3------------------3-----------------------------------------------|

Another day, another bed
It's just a game inside your head

e|---------------------------------------------------------------------------|
B|---------------------------------------------------------------------------|
G|---------------------------------------------------------------------------|
D|--------------------------------------------------------------------7-----7|
A|2-2-2-2-2-2-2-2--4-4-4-4-4-4-4-4--5-5-5-5-5-5-5-5--7-7-7-7-7-7-7-7--7-7-7-7|
E|0-0-0-0-0-0-0-0--2-2-2-2-2-2-2-2--3-3-3-3-3-3-3-3--5-5-5-5-5-5-5-5--5-5-5-5|

Chorus (End)

e|---------------------------------------------------------------------------|
B|---------------------------------------------------------------------------|
G|--------------------7-7-7-7-7-7-7-7----------------------------------------|
D|---5-5-5-5-5-5-5-5--7-7-7-7-7-7-7-7--7-7-7-7-7-7-7-7--4-4-4-4-4-4-4-4------|
A|---5-5-5-5-5-5-5-5--5-5-5-5-5-5-5-5--7-7-7-7-7-7-7-7--4-4-4-4-4-4-4-4------|
E|---3-3-3-3-3-3-3-3-------------------5-5-5-5-5-5-5-5--2-2-2-2-2-2-2-2------|

e|---------------------------------------------------------------------------|
B|---------------------------------------------------------------------------|
G|--------------------7-7-7-7-7-7-7-7----------------------------------------|
D|---5-5-5-5-5-5-5-5--7-7-7-7-7-7-7-7---7-7---7-7---7-7---7-7--7-7-7-7-------|
A|---5-5-5-5-5-5-5-5--5-5-5-5-5-5-5-5---7-7---7-7---7-7---7-7--7-7-7-7-------|
E|---3-3-3-3-3-3-3-3--------------------5-5---5-5---5-5---5-5--5-5-5-5-------|

e|---------------------------------------------------------------------------|
B|---------------------------------------------------------------------------|
G|--------------------7-7-7-7-7-7-7-7----------------------------------------|
D|---5-5-5-5-5-5-5-5--7-7-7-7-7-7-7-7--7-7-7-7-7-7-7-7--4-4-4-4-4-4-4-4------|
A|---5-5-5-5-5-5-5-5--5-5-5-5-5-5-5-5--7-7-7-7-7-7-7-7--4-4-4-4-4-4-4-4------|
E|---3-3-3-3-3-3-3-3-------------------5-5-5-5-5-5-5-5--2-2-2-2-2-2-2-2------|

e|---------------------------------------------------------------------------|
B|---------------------------------------------------------------------------|
G|---------------------------------------------------------------------------|
D|---5-5-5-5-5-5-5-5--7-7-7-7-7-7-7-7----------------------------------------|
A|---5-5-5-5-5-5-5-5--7-7-7-7-7-7-7-7----------------------------------------|
E|---3-3-3-3-3-3-3-3--5-5-5-5-5-5-5-5----------------------------------------|

e|---------------------------------------------------------------------------|
B|---------------------------------------------------------------------------|
G|--------------------7-7-7-7-7-7-7-7----------------------------------------|
D|---5-5-5-5-5-5-5-5--7-7-7-7-7-7-7-7--7-7-7-7-7-7-7-7--4-4-4-4-4-4-4-4------|
A|---5-5-5-5-5-5-5-5--5-5-5-5-5-5-5-5--7-7-7-7-7-7-7-7--4-4-4-4-4-4-4-4------|
E|---3-3-3-3-3-3-3-3-------------------5-5-5-5-5-5-5-5--2-2-2-2-2-2-2-2------|

e|---------------------------------------------------------------------------|
B|---------------------------------------------------------------------------|
G|--------------------7-7-7-7-7-7-7-7----------------------------------------|
D|---5-5-5-5-5-5-5-5--7-7-7-7-7-7-7-7---7-7---7-7---7-7---7-7--7-7-7-7-------|
A|---5-5-5-5-5-5-5-5--5-5-5-5-5-5-5-5---7-7---7-7---7-7---7-7--7-7-7-7-------|
E|---3-3-3-3-3-3-3-3--------------------5-5---5-5---5-5---5-5--5-5-5-5-------|

e|---------------------------------------------------------------------------|
B|---------------------------------------------------------------------------|
G|--------------------7-7-7-7-7-7-7-7----------------------------------------|
D|---5-5-5-5-5-5-5-5--7-7-7-7-7-7-7-7--7-7-7-7-7-7-7-7--4-4-4-4-4-4-4-4------|
A|---5-5-5-5-5-5-5-5--5-5-5-5-5-5-5-5--7-7-7-7-7-7-7-7--4-4-4-4-4-4-4-4------|
E|---3-3-3-3-3-3-3-3-------------------5-5-5-5-5-5-5-5--2-2-2-2-2-2-2-2------|

e|---------------------------------------------------------------------------|
B|---------------------------------------------------------------------------|
G|--------------------7-7-7-7-7-7-7-7----------------------------------------|x2
D|---5-5-5-5-5-5-5-5--7-7-7-7-7-7-7-7----------------------------------------|
A|---5-5-5-5-5-5-5-5--5-5-5-5-5-5-5-5----------------------------------------|
E|---3-3-3-3-3-3-3-3---------------------------------------------------------|

e|---------------------------------------------------------------------------|
B|---------------------------------------------------------------------------|
G|---------------------------------------------------------------------------|
D|---5-5-5-5-5-5-5-5-----7---------------------------------------------------|
A|---5-5-5-5-5-5-5-5-----7---------------------------------------------------|
E|---3-3-3-3-3-3-3-3-----5---------------------------------------------------|

Outro

e|---------------------------------------------------------|
B|---------------------------------------------------------|
G|----7--7-----7--7-----7--7-----7--7----------------------|
D|----7--7-----7--7-----7--7-----7--7----------------------|
A|----5--5-----5--5-----5--5-----5--5----------------------|
E|---------------------------------------------------------|

e|----7--7-----7--7-----7--7-------------------------------------------------|
B|----7--7-----7--7-----7--7-------------------------------------------------|
G|----5--5-----5--5-----5--5-------------------------------------------------|
D|---------------------------------------------------------------------------|
A|---------------------------------------------------------------------------|
E|---------------------------------------------------------------------------|
Guitar Tab Creator is intended to store guitar tab created through the tool. It currently does not support in-line text editing. Any text you place in here will be lost. If you need to comment on your tab, please use the "Tab Notes" section located below.