Simple Plan - "Loser of the Year" Rhythm Guitar

(/) Slide Up  (\) Slide Down  (h) Hammer On  (p) Pull Off  (b) Bend (r) Release (v) Vibrato


Intro

x4
e|-------------------------------------------------||-----------------|
B|-------------------------------------------------||-----------------|
G|--5--------5--5-----5--------5--5-----5-----5----||--5\-------------|
D|--5--------5--5-----5--------5--5-----5-----5----||--5\-------------|
A|--3--------3--3-----3--------3--3-----3-----3----||--3\-------------|
D|-------------------------------------------------||-----------------|

Verse 1

e|-----------------------------------------------------------|
B|-----------------------------------------------------------|
G|----------------------------------------5\-----------------|
D|--3-3-3-3-3-3-3-3----5-5-5-5-5-5-5-5----5\-----------------|
A|--3-3-3-3-3-3-3-3----5-5-5-5-5-5-5-5----3\-----------------|
D|--3-3-3-3-3-3-3-3----5-5-5-5-5-5-5-5-----------------------|


e|-----------------------------------------------------------|
B|-----------------------------------------------------------|
G|----------------------------------------5------------------|
D|--3-3-3-3-3-3-3-3----5-5-5-5-5-5-5-5----5------------------|
A|--3-3-3-3-3-3-3-3----5-5-5-5-5-5-5-5----3------------------|
D|--3-3-3-3-3-3-3-3----5-5-5-5-5-5-5-5-----------------------|

Chorus 1

x2
e|----------------------------------------------------------------------||
B|----------------------------------------------------------------------||
G|-------------------5-5-5-5-5-5-5-5------------------------------------||
D|--3-3-3-3-3-3-3-3--5-5-5-5-5-5-5-5--7-7-7-7-7-7-7-7--5-5-5-5-5-5-5-5--||
A|--3-3-3-3-3-3-3-3--3-3-3-3-3-3-3-3--7-7-7-7-7-7-7-7--5-5-5-5-5-5-5-5--||
D|--3-3-3-3-3-3-3-3-------------------7-7-7-7-7-7-7-7--5-5-5-5-5-5-5-5--||


e|-----------------------------------------------------------------------|
B|-----------------------------------------------------------------------|
G|------------------ ----------------------------------------------------|
D|--3-3-3--x-x-3-3---3-3---3---3-----7-7-7-7-7-7-7-7--5-5-5-5-5-5-5-5----|
A|--3-3-3--x-x-3-3---3-3---3---3-----7-7-7-7-7-7-7-7--5-5-5-5-5-5-5-5----|
D|--3-3-3--x-x-3-3---3-3---3---3-----7-7-7-7-7-7-7-7--5-5-5-5-5-5-5-5----|


e|-----------------------------------------------------------------------|
B|-----------------------------------------------------------------------|
G|-----------------------------------------------------------------------|
D|--0-0-0-0-0-0-0-0--0-0-0-0-0-0-0-0--3-3-3-3-3-3-3-3-3\-----------------|
A|--0-0-0-0-0-0-0-0--0-0-0-0-0-0-0-0--3-3-3-3-3-3-3-3-3\-----------------|
D|--0-0-0-0-0-0-0-0--0-0-0-0-0-0-0-0--3-3-3-3-3-3-3-3-3\-----------------|

Chorus Bridge 1

x2
e|-------------------------------------------------||-----------------|
B|-------------------------------------------------||-----------------|
G|--5--5-----5--5-----5--5-----5--5-----5-----5----||--5\-------------|
D|--5--5-----5--5-----5--5-----5--5-----5-----5----||--5\-------------|
A|--3--3-----3--3-----3--3-----3--3-----3-----3----||--3\-------------|
D|-------------------------------------------------||-----------------|

Verse 2

e|-----------------------------------------------------------|
B|-----------------------------------------------------------|
G|-----------------------------------------------------------|
D|--x-x-x-x--3-3-3-3-3-3-3-3----5-5-5-5-5-5-5-5--------------|
A|--x-x-x-x--3-3-3-3-3-3-3-3----5-5-5-5-5-5-5-5--------------|
D|--x-x-x-x--3-3-3-3-3-3-3-3----5-5-5-5-5-5-5-5--------------|

x6
e|---------------------------||
B|---------------------------||
G|---------------------------||
D|--5--5--5--5--5--5--5--5---||
A|--3--3--3--3--3--3--3--3---||
D|---------------------------||


e|----------------------------------------------------------------|
B|----------------------------------------------------------------|
G|-------------------------------------------------5--------------|
D|--x-x-x-x--3-3-3-3-3-3-3-3----5-5-5-5-5-5-5-5----5--------------|
A|--x-x-x-x--3-3-3-3-3-3-3-3----5-5-5-5-5-5-5-5----3--------------|
D|--x-x-x-x--3-3-3-3-3-3-3-3----5-5-5-5-5-5-5-5-------------------|

Chorus 2

x2
e|----------------------------------------------------------------------||
B|----------------------------------------------------------------------||
G|-------------------5-5-5-5-5-5-5-5------------------------------------||
D|--3-3-3-3-3-3-3-3--5-5-5-5-5-5-5-5--7-7-7-7-7-7-7-7--5-5-5-5-5-5-5-5--||
A|--3-3-3-3-3-3-3-3--3-3-3-3-3-3-3-3--7-7-7-7-7-7-7-7--5-5-5-5-5-5-5-5--||
D|--3-3-3-3-3-3-3-3-------------------7-7-7-7-7-7-7-7--5-5-5-5-5-5-5-5--||


e|-----------------------------------------------------------------------|
B|-----------------------------------------------------------------------|
G|------------------ ----------------------------------------------------|
D|--3-3-3--x-x-3-3---3-3---3---3-----7-7-7-7-7-7-7-7--5-5-5-5-5-5-5-5----|
A|--3-3-3--x-x-3-3---3-3---3---3-----7-7-7-7-7-7-7-7--5-5-5-5-5-5-5-5----|
D|--3-3-3--x-x-3-3---3-3---3---3-----7-7-7-7-7-7-7-7--5-5-5-5-5-5-5-5----|


e|-----------------------------------------------------------------------|
B|-----------------------------------------------------------------------|
G|-----------------------------------------------------------------------|
D|--0-0-0-0-0-0-0-0--0-0-0-0-0-0-0-0--3-3-3-3-3-3-3-3-3\-----------------|
A|--0-0-0-0-0-0-0-0--0-0-0-0-0-0-0-0--3-3-3-3-3-3-3-3-3\-----------------|
D|--0-0-0-0-0-0-0-0--0-0-0-0-0-0-0-0--3-3-3-3-3-3-3-3-3\-----------------|

Chorus Bridge 2

x2
e|-------------------------------------------------||
B|-------------------------------------------------||
G|--5--5--5-----------5--5-----5--5----------------||
D|--5--5--5-----------5--5-----5--5----------------||
A|--3--3--3-----------3--3-----3--3----------------||
D|-------------------------------------------------||


e|--------------------------------------------------|
B|--------------------------------------------------|
G|-----5--5-----------5--5-----5--5-----------------|
D|-----5--5-----------5--5-----5--5-----------------|
A|-----3--3-----------3--3-----3--3-----------------|
D|--------------------------------------------------|


e|--------------------------------------------------|
B|--------------------------------------------------|
G|--5--5--5-----------5--5\-------------------------|
D|--3--5--5-----------5--5\-------------------------|
A|--3--3--3-----------3--3\-------------------------|
D|--------------------------------------------------|

Bridge


x2
e|---------------------------||
B|---------------------------||
G|---------------------------||
D|---------------------------||
A|--3--3--3--3--3--3--3--3---||
D|--3--3--3--3--3--3--3--3---||

Chorus 3

x3
e|----------------------------------------------------------------------||
B|----------------------------------------------------------------------||
G|-------------------5-5-5-5-5-5-5-5------------------------------------||
D|--3-3-3-3-3-3-3-3--5-5-5-5-5-5-5-5--7-7-7-7-7-7-7-7--5-5-5-5-5-5-5-5--||
A|--3-3-3-3-3-3-3-3--3-3-3-3-3-3-3-3--7-7-7-7-7-7-7-7--5-5-5-5-5-5-5-5--||
D|--3-3-3-3-3-3-3-3-------------------7-7-7-7-7-7-7-7--5-5-5-5-5-5-5-5--||


e|-----------------------------------------------------------------------|
B|-----------------------------------------------------------------------|
G|------------------ ----------------------------------------------------|
D|--3-3-3--x-x-3-3---3-3---3---3-----7-7-7-7-7-7-7-7--5-5-5-5-5-5-5-5----|
A|--3-3-3--x-x-3-3---3-3---3---3-----7-7-7-7-7-7-7-7--5-5-5-5-5-5-5-5----|
D|--3-3-3--x-x-3-3---3-3---3---3-----7-7-7-7-7-7-7-7--5-5-5-5-5-5-5-5----|


e|-----------------------------------------------------------------------|
B|-----------------------------------------------------------------------|
G|-----------------------------------------------------------------------|
D|--0-0-0-0-0-0-0-0--0-0-0-0-0-0-0-0--3-3-3-3-3-3-3-3--3-3-3-3-3-3-3-3---|
A|--0-0-0-0-0-0-0-0--0-0-0-0-0-0-0-0--3-3-3-3-3-3-3-3--3-3-3-3-3-3-3-3---|
D|--0-0-0-0-0-0-0-0--0-0-0-0-0-0-0-0--3-3-3-3-3-3-3-3--3-3-3-3-3-3-3-3---|


e|-----------------------------------------------------------------------|
B|-----------------------------------------------------------------------|
G|-----------------------------------------------------------------------|
D|--0-0-0-0-0-0-0-0--0-0-0-0-0-0-0-0--3-3-3-3-3-3-3-3-3\-----------------|
A|--0-0-0-0-0-0-0-0--0-0-0-0-0-0-0-0--3-3-3-3-3-3-3-3-3\-----------------|
D|--0-0-0-0-0-0-0-0--0-0-0-0-0-0-0-0--3-3-3-3-3-3-3-3-3\-----------------|

Outro

e|--------------------------------------------------|
B|--------------------------------------------------|
G|--5--5--5-----------5--5-----5--5-----------------|
D|--5--5--5-----------5--5-----5--5-----------------|
A|--3--3--3-----------3--3-----3--3-----------------|
D|--------------------------------------------------|


e|--------------------------------------------------|
B|--------------------------------------------------|
G|--5--5--5-----------5--5-----5--5-----------------|
D|--5--5--5-----------5--5-----5--5-----------------|
A|--3--3--3-----------3--3-----3--3-----------------|
D|--------------------------------------15\---------|


e|--------------------------------------------------|
B|--------------------------------------------------|
G|-----5--5-----------5--5-----5--5-----------------|
D|-----5--5-----------5--5-----5--5-----------------|
A|-----3--3-----------3--3-----3--3-----------------|
D|--------------------------------------------------|


e|--------------------------------------------------|
B|--------------------------------------------------|
G|--5--5--5-----------5--5\-------------------------|
D|--3--5--5-----------5--5\-------------------------|
A|--3--3--3-----------3--3\-------------------------|
D|--------------------------------------------------|
Guitar Tab Creator is intended to store guitar tab created through the tool. It currently does not support in-line text editing. Any text you place in here will be lost. If you need to comment on your tab, please use the "Tab Notes" section located below.