Simple Plan - "Loser of the Year" Lead Guitar Tab

(/) Slide Up  (\) Slide Down  (h) Hammer On  (p) Pull Off  (b) Bend (r) Release (v) Vibrato

Intro

e|----------------------------------------------------------||
B|----------------------------------------------------------||
G|--9--------9--9-----9--------9--9-----9-----7-------------||
D|----------------------------------------------------------||
A|--7--------7--7-----7--------7--7-----7-----5-------------||
D|----------------------------------------------------------||


e|-----------------------------------------------------------|
B|-----------------------------------------------------------|
G|--9--9--9--7--7--7--10--10--10--7--7--7--------------------|
D|-----------------------------------------10--10--10--10----|
A|-----------------------------------------------------------|
D|-----------------------------------------------------------|


e|-----------------------------------------------------------|
B|-----------------------------------------------------------|
G|--9--9--9--7--7--7--10--10--10--7--7--7--------------------|
D|-----------------------------------------10\---------------|
A|-----------------------------------------------------------|
D|-----------------------------------------------------------|

Verse 1

e|-----------------------------------------------------------|
B|-----------------------------------------------------------|
G|--------------------------------------------5\-------------|
D|--x\--3-3-3-3-3-3-3-3----5-5-5-5-5-5-5-5----5\-------------|
A|--x\--3-3-3-3-3-3-3-3----5-5-5-5-5-5-5-5----3\-------------|
D|--x\--3-3-3-3-3-3-3-3----5-5-5-5-5-5-5-5-------------------|

x5
e|--------------------||------------------------------------------------|
B|--------------------||------------------------------------------------|
G|--5--x-x--5--x-x----||------------------------------------------------|
D|-----x-x-----x-x----||--x-x-x-x--3-3-3-3-3-3-3-3----5-5-5-5-5-5-5-5---|
A|--3--x-x--3--x-x----||--x-x-x-x--3-3-3-3-3-3-3-3----5-5-5-5-5-5-5-5---|
D|--------------------||--x-x-x-x--3-3-3-3-3-3-3-3----5-5-5-5-5-5-5-5---|

x7
e|--------------------||
B|--------------------||
G|--10------10--------||
D|-----10------10-----||
A|--------------------||
D|--------------------||

Chorus 1

x2 x2
e|----------------------------------------||----------------------------||
B|-----13-------13-------13-------15------||--13-13-13-13-13-13-13-13---||
G|--12----12-12----12-14----14-12----12---||--12-12-12-12-12-12-12-12---||
D|----------------------------------------||----------------------------||
A|----------------------------------------||----------------------------||
D|----------------------------------------||----------------------------||

x2
e|--------------------------|----------------------------------||
B|------13----------15------|--15--15--15--15--15--15--15--15--||
G|--14------14--12------12--|--12--12--12--12--12--12--12--12--||
D|--------------------------|----------------------------------||
A|--------------------------|----------------------------------||
D|--------------------------|----------------------------------||


e|----------------------------------------|
B|--13--13--13--13--13--13--13--13---12\--|
G|--12--12--12--12--12--12--12--12---12\--|
D|----------------------------------------|
A|----------------------------------------|
D|----------------------------------------|

Chorus Bridge

e|-----------------------------------------------------------|
B|-----------------------------------------------------------|
G|--9--9--9--7--7--7--10--10--10--7--7--7--------------------|
D|-----------------------------------------10--10--10--10----|
A|-----------------------------------------------------------|
D|-----------------------------------------------------------|


e|-----------------------------------------------------------|
B|-----------------------------------------------------------|
G|--9--9--9--7--7--7--10--10--10--7--7--7--------------------|
D|-----------------------------------------10\---------------|
A|-----------------------------------------------------------|
D|-----------------------------------------------------------|

Verse 2

e|--------------------||---------------------------------------------------|
B|--------------------||---------------------------------------------------|
G|--5--x-x--5--x-x----||-----------------------------------------------5\--|
D|-----x-x-----x-x----||--x-x-x-x--3-3-3-3-3-3-3-3----5-5-5-5-5-5-5-5--5\--|
A|--3--x-x--3--x-x----||--x-x-x-x--3-3-3-3-3-3-3-3----5-5-5-5-5-5-5-5--3\--|
D|--------------------||--x-x-x-x--3-3-3-3-3-3-3-3----5-5-5-5-5-5-5-5------|

x5
e|--------------------||------------------------------------------------|
B|--------------------||------------------------------------------------|
G|--5--x-x--5--x-x----||------------------------------------------------|
D|-----x-x-----x-x----||--x-x-x-x--3-3-3-3-3-3-3-3----5-5-5-5-5-5-5-5---|
A|--3--x-x--3--x-x----||--x-x-x-x--3-3-3-3-3-3-3-3----5-5-5-5-5-5-5-5---|
D|--------------------||--x-x-x-x--3-3-3-3-3-3-3-3----5-5-5-5-5-5-5-5---|

x7
e|--------------------||
B|--------------------||
G|--10------10--------||
D|-----10------10-----||
A|--------------------||
D|--------------------||

Chorus 2

x2 x2
e|----------------------------------------||----------------------------||
B|-----13-------13-------13-------15------||--13-13-13-13-13-13-13-13---||
G|--12----12-12----12-14----14-12----12---||--12-12-12-12-12-12-12-12---||
D|----------------------------------------||----------------------------||
A|----------------------------------------||----------------------------||
D|----------------------------------------||----------------------------||

x2
e|--------------------------|----------------------------------||
B|------13----------15------|--15--15--15--15--15--15--15--15--||
G|--14------14--12------12--|--12--12--12--12--12--12--12--12--||
D|--------------------------|----------------------------------||
A|--------------------------|----------------------------------||
D|--------------------------|----------------------------------||


e|----------------------------------------|
B|--13--13--13--13--13--13--13--13---12\--|
G|--12--12--12--12--12--12--12--12---12\--|
D|----------------------------------------|
A|----------------------------------------|
D|----------------------------------------|

Chorus Bridge

x3
e|-----------------------------------------------------------||
B|-----------------------------------------------------------||
G|--9--9--9--7--7--7--10--10--10--7--7--7--------------------||
D|-----------------------------------------10--10--10--10----||
A|-----------------------------------------------------------||
D|-----------------------------------------------------------||


e|----------------------------|
B|----------------------------|
G|--9--9--9--7--7--7--9--9\---|
D|----------------------------|
A|----------------------------|
D|----------------------------|

Chorus 3

x3 x2
e|----------------------------------------||----------------------------||
B|-----13-------13-------13-------15------||--13-13-13-13-13-13-13-13---||
G|--12----12-12----12-14----14-12----12---||--12-12-12-12-12-12-12-12---||
D|----------------------------------------||----------------------------||
A|----------------------------------------||----------------------------||
D|----------------------------------------||----------------------------||


e|--------------------------|----------------------------------|
B|------13----------15------|--15--15--15--15--15--15--15--15--|
G|--14------14--12------12--|--12--12--12--12--12--12--12--12--|
D|--------------------------|----------------------------------|
A|--------------------------|----------------------------------|
D|--------------------------|----------------------------------|

x2
e|--13-12----15-13-12-------|---------------------------------||
B|--------13----------13----|--13-13-13-13-13-13-13-13--------||
G|--------------------------|--12-12-12-12-12-12-12-12--------||
D|--------------------------|---------------------------------||
A|--------------------------|---------------------------------||
D|--------------------------|---------------------------------||

e|----------------------------------|--13-12----15-13-12-------|
B|--15--15--15--15--15--15--15--15--|--------13----------13----|
G|--12--12--12--12--12--12--12--12--|--------------------------|
D|----------------------------------|--------------------------|
A|----------------------------------|--------------------------|
D|----------------------------------|--------------------------|


e|----------------------------------------|
B|--13--13--13--13--13--13--13--13---12\--|
G|--12--12--12--12--12--12--12--12---12\--|
D|----------------------------------------|
A|----------------------------------------|
D|----------------------------------------|

Outro

x3
e|-----------------------------------------------------------||
B|-----------------------------------------------------------||
G|--9--9--9--7--7--7--10--10--10--7--7--7--------------------||
D|-----------------------------------------10--10--10--10----||
A|-----------------------------------------------------------||
D|-----------------------------------------------------------||


e|----------------------------|
B|----------------------------|
G|--9--9--9--7--7--7--9--9\---|
D|----------------------------|
A|----------------------------|
D|----------------------------|
Guitar Tab Creator is intended to store guitar tab created through the tool. It currently does not support in-line text editing. Any text you place in here will be lost. If you need to comment on your tab, please use the "Tab Notes" section located below.