Green Day - "Whatsername"

*Drop D Tuning*

Intro x2
e|------------|
B|------------|
G|-7------4---|
D|-7------4---|
A|-5------2---|
D|------------|

Verse x2
e|------------|
B|------------|
G|-7------4---|
D|-7------4---|
A|-5------2---|
D|------------|

Chorus x3
e|--------------------| |----------|
B|--------------------| |----------|
G|-----7-------4--2---| |----------|
D|-5---7---4---4--2---| |--5---7---|
A|-5---5---4---2--0---| |--5---7---|
D|-5-------4----------| |--5---7---|

Intro x2
e|------------|
B|------------|
G|-7------4---|
D|-7------4---|
A|-5------2---|
D|------------|

Verse x2
e|------------|
B|------------|
G|-7------4---|
D|-7------4---|
A|-5------2---|
D|------------|

Chorus x3
e|--------------------| |----------|
B|--------------------| |----------|
G|-----7-------4--2---| |----------|
D|-5---7---4---4--2---| |--5---7---|
A|-5---5---4---2--0---| |--5---7---|
D|-5-------4----------| |--5---7---|

Bridge x2
e|-------------------------------------------------------------|
B|-----2h3---3-----2h3---3-----2h3---4-4-4-4-4-4-4-4-4-4-4-4---|
G|---2---------2-----------2---------4-4-4-4-4-4-4-4-4-4-4-4---|
D|-0-------0-----0-----0-----0-------4-4-4-4-4-4-4-4-4-4-4-4---|
A|-----------------------------------2-2-2-2-2-2-2-2-2-2-2-2---|
D|-------------------------------------------------------------|

Solo x2
e|---------------------------------------------------------------------|
B|---------------------------------------------------------------------|
G|--7-7-7--6-6--7-7-7-------7--6-6--7-6-2-3-3-3-3-6-3-4-4-4-4-6-4-6-7--|
D|----------------------7-7--------------------------------------------|
A|---------------------------------------------------------------------|
D|---------------------------------------------------------------------|

Interlude x2
e|-----------------|
B|-----------------|
G|-----------------|
D|-5---0---7---0---|
A|-5---0---7---0---|
D|-5---0---7---0---|
x2
e|--------------------|
B|--------------------|
G|-------------4--2---|
D|-5---0---4---4--2---|
A|-5---0---4---2--0---|
D|-5---0---4----------|

Riff x2
e|--------------------|
B|--------------------|
G|-------------4--2---|
D|-5---0---4---4--2---|
A|-5---0---4---2--0---|
D|-5---0---4----------|

Outro
e|-------------------------|
B|-------------------------|
G|-------------------------|
D|-5---7---0-------5---7---|
A|-5---7---0-------5---7---|
D|-5---7---0-------5---7---|
x2
e|------------|
B|------------|
G|-7------4---|
D|-7------4---|
A|-5------2---|
D|------------|
Guitar Tab Creator is intended to store guitar tab created through the tool. It currently does not support in-line text editing. Any text you place in here will be lost. If you need to comment on your tab, please use the "Tab Notes" section located below.