All Time Low - "Somewhere in Neverland"

Drop D Tuning

Intro.:
e|---------------------------------------------------------------------------|
B|---------------------------------------------------------------------------|
G|-8-8-8-8-8------------------------5-5-5-5-5--------------------------------|
D|-8-8-8-8-8-5-6-8-8-8-8-8-8-8-8-8--5-5-5-5-5-3-5-6-6-6-6-6-6-6-6-6----------|
A|-6-6-6-6-6-5-6-8-8-8-8-8-8-8-8-8--3-3-3-3-3-3-5-6-6-6-6-6-6-6-6-6----------|
D|-----------5-6-8-8-8-8-8-8-8-8-8------------3-5-6-6-6-6-6-6-6-6-6----------|

e|---------------------------------------------------------------------------|
B|---------------------------------------------------------------------------|
G|-8-8-8-8-8------------------------5-5-5-5-5--------------------------------|
D|-8-8-8-8-8-5-6-8-8-8-8-8-8-8-8-8--5-5-5-5-5-3-5-6\-------------------------|
A|-6-6-6-6-6-5-6-8-8-8-8-8-8-8-8-8--3-3-3-3-3-3-5-6\-------------------------|
D|-----------5-6-8-8-8-8-8-8-8-8-8------------3-5-6\-------------------------|

Verse.:
e|---------------------------------------------------------------------------|
B|---------------------------------------------------------------------------|
G|-8-8-8-8-8------------------------5-5-5-5-5--------------------------------|
D|-8-8-8-8-8-5-6-8-8-8-8-8-8-8-8-8--5-5-5-5-5-3-5-6-6-6-6-6-6-6-6-6----------|
A|-6-6-6-6-6-5-6-8-8-8-8-8-8-8-8-8--3-3-3-3-3-3-5-6-6-6-6-6-6-6-6-6----------|
D|-----------5-6-8-8-8-8-8-8-8-8-8------------3-5-6-6-6-6-6-6-6-6-6----------|

e|---------------------------------------------------------------------------|
B|---------------------------------------------------------------------------|
G|-8-8-8-8-8------------------------5-5-5-5-5--------------------------------|
D|-8-8-8-8-8-5-6-8-8-8-8-8-8-8-8-8--5-5-5-5-5-3-5-6-6-6-6-6-6-6-6-6----------|
A|-6-6-6-6-6-5-6-8-8-8-8-8-8-8-8-8--3-3-3-3-3-3-5-6-6-6-6-6-6-6-6-6----------|
D|-----------5-6-8-8-8-8-8-8-8-8-8------------3-5-6-6-6-6-6-6-6-6-6----------|

e|---------------------------------------------------------------------------|
B|---------------------------------------------------------------------------|
G|-8-8-8-8-8------------------------5-5-5-5-5--------------------------------|
D|-8-8-8-8-8-5-6-8-8-8-8-8-8-8-8-8--5-5-5-5-5-3-5-6-6-6-6-6-6-6-6-6----------|
A|-6-6-6-6-6-5-6-8-8-8-8-8-8-8-8-8--3-3-3-3-3-3-5-6-6-6-6-6-6-6-6-6----------|
D|-----------5-6-8-8-8-8-8-8-8-8-8------------3-5-6-6-6-6-6-6-6-6-6----------|

e|---------------------------------------------------------------------------|
B|---------------------------------------------------------------------------|
G|-8-8-8-8-8------------------------5-5-5-5-5--------------------------------|
D|-8-8-8-8-8-5-6-8-8-8-8-8-8-8-8-8--5-5-5-5-5-3-5-6\-------------------------|
A|-6-6-6-6-6-5-6-8-8-8-8-8-8-8-8-8--3-3-3-3-3-3-5-6\-------------------------|
D|-----------5-6-8-8-8-8-8-8-8-8-8------------3-5-6\-------------------------|

Pre-Chorus.:
e|---------------------------------------------------------------------------|
B|---------------------------------------------------------------------------|
G|---------------------------------------------------------------------------|
D|------------------------6\------------------xx-xx--------------------------|
A|------------------------6\------------------xx-xx--------------------------|
D|------------------------6\------------------xx-xx--------------------------|

Chorus.:
e|---------------------------------------------------------------------------|
B|---------------------------------------------------------------------------|
G|-8-8-8-8-8------------------------5-5-5-5-5--------------------------------|
D|-8-8-8-8-8-5-6-8-8-8-8-8-8-8-8-8--5-5-5-5-5-3-5-6-6-6-6-6-6-6-6-6----------|
A|-6-6-6-6-6-5-6-8-8-8-8-8-8-8-8-8--3-3-3-3-3-3-5-6-6-6-6-6-6-6-6-6----------|
D|-----------5-6-8-8-8-8-8-8-8-8-8------------3-5-6-6-6-6-6-6-6-6-6----------|

e|---------------------------------------------------------------------------|
B|---------------------------------------------------------------------------|
G|-8-8-8-8-8------------------------5-5-5-5-5--------------------------------|
D|-8-8-8-8-8-5-6-8-8-8-8-8-8-8-8-8--5-5-5-5-5-3-5-6\------------xxx-xxx-xxx--|
A|-6-6-6-6-6-5-6-8-8-8-8-8-8-8-8-8--3-3-3-3-3-3-5-6\------------xxx-xxx-xxx--|
D|-----------5-6-8-8-8-8-8-8-8-8-8------------3-5-6\------------xxx-xxx-xxx--|

e|---------------------------------------------------------------------------|
B|---------------------------------------------------------------------------|
G|-8-8-8-8-8------------------------5-5-5-5-5--------------------------------|
D|-8-8-8-8-8-5-6-8-8-8-8-8-8-8-8-8--5-5-5-5-5-3-5-6-6-6-6-6-6-6-6-6----------|
A|-6-6-6-6-6-5-6-8-8-8-8-8-8-8-8-8--3-3-3-3-3-3-5-6-6-6-6-6-6-6-6-6----------|
D|-----------5-6-8-8-8-8-8-8-8-8-8------------3-5-6-6-6-6-6-6-6-6-6----------|

e|---------------------------------------------------------------------------|
B|---------------------------------------------------------------------------|
G|-8-8-8-8-8------------------------5-5-5-5-5--------------------------------|
D|-8-8-8-8-8-5-6-8-8-8-8-8-8-8-8-8--5-5-5-5-5-3-5-6\-------------------------|
A|-6-6-6-6-6-5-6-8-8-8-8-8-8-8-8-8--3-3-3-3-3-3-5-6\-------------------------|
D|-----------5-6-8-8-8-8-8-8-8-8-8------------3-5-6\-------------------------|

Inst.:
e|---------------------------------------------------------------------------|
B|---------------------------------------------------------------------------|
G|-8-8-8-8-8------------------------5-5-5-5-5--------------------------------|
D|-8-8-8-8-8-5-6-8-8-8-8-8-8-8-8-8--5-5-5-5-5-3-5-6-6-6-6-6-6-6-6-6----------|
A|-6-6-6-6-6-5-6-8-8-8-8-8-8-8-8-8--3-3-3-3-3-3-5-6-6-6-6-6-6-6-6-6----------|
D|-----------5-6-8-8-8-8-8-8-8-8-8------------3-5-6-6-6-6-6-6-6-6-6----------|

Verse.:
e|---------------------------------------------------------------------------|
B|---------------------------------------------------------------------------|
G|-8-8-8-8-8------------------------5-5-5-5-5--------------------------------|
D|-8-8-8-8-8-5-6-8-8-8-8-8-8-8-8-8--5-5-5-5-5-3-5-6-6-6-6-6-6-6-6-6----------|
A|-6-6-6-6-6-5-6-8-8-8-8-8-8-8-8-8--3-3-3-3-3-3-5-6-6-6-6-6-6-6-6-6----------|
D|-----------5-6-8-8-8-8-8-8-8-8-8------------3-5-6-6-6-6-6-6-6-6-6----------|

e|---------------------------------------------------------------------------|
B|---------------------------------------------------------------------------|
G|-8-8-8-8-8------------------------5-5-5-5-5--------------------------------|
D|-8-8-8-8-8-5-6-8-8-8-8-8-8-8-8-8--5-5-5-5-5-3-5-6-6-6-6-6-6-6-6-6----------|
A|-6-6-6-6-6-5-6-8-8-8-8-8-8-8-8-8--3-3-3-3-3-3-5-6-6-6-6-6-6-6-6-6----------|
D|-----------5-6-8-8-8-8-8-8-8-8-8------------3-5-6-6-6-6-6-6-6-6-6----------|

e|---------------------------------------------------------------------------|
B|---------------------------------------------------------------------------|
G|-8-8-8-8-8------------------------5-5-5-5-5--------------------------------|
D|-8-8-8-8-8-5-6-8-8-8-8-8-8-8-8-8--5-5-5-5-5-3-5-6-6-6-6-6-6-6-6-6----------|
A|-6-6-6-6-6-5-6-8-8-8-8-8-8-8-8-8--3-3-3-3-3-3-5-6-6-6-6-6-6-6-6-6----------|
D|-----------5-6-8-8-8-8-8-8-8-8-8------------3-5-6-6-6-6-6-6-6-6-6----------|

e|---------------------------------------------------------------------------|
B|---------------------------------------------------------------------------|
G|-8-8-8-8-8------------------------5-5-5-5-5--------------------------------|
D|-8-8-8-8-8-5-6-8-8-8-8-8-8-8-8-8--5-5-5-5-5-3-5-6\-------------------------|
A|-6-6-6-6-6-5-6-8-8-8-8-8-8-8-8-8--3-3-3-3-3-3-5-6\-------------------------|
D|-----------5-6-8-8-8-8-8-8-8-8-8------------3-5-6\-------------------------|

Pre-Chorus.:
e|---------------------------------------------------------------------------|
B|---------------------------------------------------------------------------|
G|---------------------------------------------------------------------------|
D|------------------------6\------------------xx-xx--------------------------|
A|------------------------6\------------------xx-xx--------------------------|
D|------------------------6\------------------xx-xx--------------------------|

Chorus.:
e|---------------------------------------------------------------------------|
B|---------------------------------------------------------------------------|
G|-8-8-8-8-8------------------------5-5-5-5-5--------------------------------|
D|-8-8-8-8-8-5-6-8-8-8-8-8-8-8-8-8--5-5-5-5-5-3-5-6-6-6-6-6-6-6-6-6----------|
A|-6-6-6-6-6-5-6-8-8-8-8-8-8-8-8-8--3-3-3-3-3-3-5-6-6-6-6-6-6-6-6-6----------|
D|-----------5-6-8-8-8-8-8-8-8-8-8------------3-5-6-6-6-6-6-6-6-6-6----------|

e|---------------------------------------------------------------------------|
B|---------------------------------------------------------------------------|
G|-8-8-8-8-8------------------------5-5-5-5-5--------------------------------|
D|-8-8-8-8-8-5-6-8-8-8-8-8-8-8-8-8--5-5-5-5-5-3-5-6\------------xxx-xxx-xxx--|
A|-6-6-6-6-6-5-6-8-8-8-8-8-8-8-8-8--3-3-3-3-3-3-5-6\------------xxx-xxx-xxx--|
D|-----------5-6-8-8-8-8-8-8-8-8-8------------3-5-6\------------xxx-xxx-xxx--|

e|---------------------------------------------------------------------------|
B|---------------------------------------------------------------------------|
G|-8-8-8-8-8------------------------5-5-5-5-5--------------------------------|
D|-8-8-8-8-8-5-6-8-8-8-8-8-8-8-8-8--5-5-5-5-5-3-5-6-6-6-6-6-6-6-6-6----------|
A|-6-6-6-6-6-5-6-8-8-8-8-8-8-8-8-8--3-3-3-3-3-3-5-6-6-6-6-6-6-6-6-6----------|
D|-----------5-6-8-8-8-8-8-8-8-8-8------------3-5-6-6-6-6-6-6-6-6-6----------|

e|---------------------------------------------------------------------------|
B|---------------------------------------------------------------------------|
G|-8-8-8-8-8------------------------5-5-5-5-5--------------------------------|
D|-8-8-8-8-8-5-6-8-8-8-8-8-8-8-8-8--5-5-5-5-5-3-5-6\-------------------------|
A|-6-6-6-6-6-5-6-8-8-8-8-8-8-8-8-8--3-3-3-3-3-3-5-6\-------------------------|
D|-----------5-6-8-8-8-8-8-8-8-8-8------------3-5-6\-------------------------|

Bridge.:
e|---------------------------------------------------------------------------|
B|---------------------------------------------------------------------------|
G|---------------------------------------------------------------------------|
D|-6-----------8-------------9-------------10------8-------------------------|
A|-6-----------8-------------9-------------10------8-------------------------|
D|-6-----------8-------------9-------------10------8-------------------------|

e|---------------------------------------------------------------------------|
B|---------------------------------------------------------------------------|
G|---------------------------------------------------------------------------|
D|-666666666666-88888888888888-99999999999999-1010101010101010-88888888888888|
A|-666666666666-88888888888888-99999999999999-1010101010101010-88888888888888|
D|-666666666666-88888888888888-99999999999999-1010101010101010-88888888888888|

e|---------------------------------------------------------------------------|
B|---------------------------------------------------------------------------|
G|---------------------------------------------------------------------------|
D|--------------6\----------------------------6\---------------xx-xx---------|
A|--------------6\----------------------------6\---------------xx-xx---------|
D|--------------6\----------------------------6\---------------xx-xx---------|

Chorus.:
e|---------------------------------------------------------------------------|
B|---------------------------------------------------------------------------|
G|-8-8-8-8-8------------------------5-5-5-5-5--------------------------------|
D|-8-8-8-8-8-5-6-8-8-8-8-8-8-8-8-8--5-5-5-5-5-3-5-6-6-6-6-6-6-6-6-6----------|
A|-6-6-6-6-6-5-6-8-8-8-8-8-8-8-8-8--3-3-3-3-3-3-5-6-6-6-6-6-6-6-6-6----------|
D|-----------5-6-8-8-8-8-8-8-8-8-8------------3-5-6-6-6-6-6-6-6-6-6----------|


e|---------------------------------------------------------------------------|
B|---------------------------------------------------------------------------|
G|----8---8-------------------------5-5-5-5-5--------------------------------|
D|----8---8--5-6-8-8-8-8-8-8-8-8-8--5-5-5-5-5-3-5-6\------------xxx-xxx-xxx--|
A|----6---6--5-6-8-8-8-8-8-8-8-8-8--3-3-3-3-3-3-5-6\------------xxx-xxx-xxx--|
D|-----------5-6-8-8-8-8-8-8-8-8-8------------3-5-6\------------xxx-xxx-xxx--|

e|---------------------------------------------------------------------------|
B|---------------------------------------------------------------------------|
G|-8-8-8-8-8------------------------5-5-5-5-5--------------------------------|
D|-8-8-8-8-8-5-6-8-8-8-8-8-8-8-8-8--5-5-5-5-5-3-5-6-6-6-6-6-6-6-6-6----------|
A|-6-6-6-6-6-5-6-8-8-8-8-8-8-8-8-8--3-3-3-3-3-3-5-6-6-6-6-6-6-6-6-6----------|
D|-----------5-6-8-8-8-8-8-8-8-8-8------------3-5-6-6-6-6-6-6-6-6-6----------|

e|---------------------------------------------------------------------------|
B|---------------------------------------------------------------------------|
G|-8-8-8-8-8------------------------5-5-5-5-5--------------------------------|
D|-8-8-8-8-8-5-6-8-8-8-8-8-8-8-8-8--5-5-5-5-5-3-5-6\-------------------------|
A|-6-6-6-6-6-5-6-8-8-8-8-8-8-8-8-8--3-3-3-3-3-3-5-6\-------------------------|
D|-----------5-6-8-8-8-8-8-8-8-8-8------------3-5-6\-------------------------|
Guitar Tab Creator is intended to store guitar tab created through the tool. It currently does not support in-line text editing. Any text you place in here will be lost. If you need to comment on your tab, please use the "Tab Notes" section located below.