All Time Low - "Hello Brooklyn"

Intro/Verse.:
e|----------------------| e|-----------------|
B|-------55-------------| B|-------55--------|
G|-44----44----22-------| G|-44----44--------|
D|-44----22----22----44-| 4x D|-44----22----2---|
A|-22----------00----44-| A|-22----------2---|
E|-------------------22-| E|-----------7/0---|

Chorus.:
e|-----------------------------------| e|-----------------------------------|
B|-----------------------------------| B|-----------------------------------|
G|22222222--------44444444/77777777--| G|22222222----------44-----77--------|
D|222222222222222244444444/77777777--| 3x D|2222222222222222--44-----77--------|
A|000000002222222222222222/55555555--| A|0000000022222222--22-----55--------|
E|--------00000000-------------------| E|--------00000000-------------------|

Verse.:
e|----------------------| e|-----------------|
B|-------55-------------| B|-------55--------|
G|-44----44----22-------| G|-44----44--------|
D|-44----22----22----44-| 3x D|-44----22----2---|
A|-22----------00----44-| A|-22----------2---|
E|-------------------22-| E|-----------7/0---|

Chorus.:
e|-----------------------------------| e|-----------------------------------|
B|-----------------------------------| B|-----------------------------------|
G|22222222--------44444444/77777777--| G|22222222----------44-----77--------|
D|222222222222222244444444/77777777--| 3x D|2222222222222222--44-----77--------|
A|000000002222222222222222/55555555--| A|0000000022222222--22-----55--------|
E|--------00000000-------------------| E|--------00000000-------------------|

Bridge.:
e|------------------------------------------------5~~---|
B|------------------------------------------------6~~---|
G|----------7777777799999999------------77777777--7~~---|
D|44---22---7777777799999999--44---22---77777777--7~~---|
A|44---22---5555555577777777--44---22---55555555--5~~---|
E|22---00---------------------22---00-------------------|

Chorus/Outro.:
e|-----------------------------------|
B|-----------------------------------|
G|22--------44---77---22--------7~~--|
D|22---22---44---77---22---22---7~~--|
A|00---22---22---55---00---22---5~~--|
E|-----00------------------00--------|

e|-----------------------------------|
B|-----------------------------------|
G|22222222--------44444444/77777777--|
D|222222222222222244444444/77777777--| 5x
A|000000002222222222222222/55555555--|
E|--------00000000-------------------|

e|--------------------------------|
B|--------------------------------|
G|22222222----------44--77---2~~--|
D|2222222222222222--44--77---2~~--|
A|0000000022222222--22--55---0~~--|
E|--------00000000----------------|
Guitar Tab Creator is intended to store guitar tab created through the tool. It currently does not support in-line text editing. Any text you place in here will be lost. If you need to comment on your tab, please use the "Tab Notes" section located below.