Heavy cross

(/) Slide Up  (\) Slide Down  (h) Hammer On  (p) Pull Off  (b) Bend (r) Release (v) Vibrato

Stave 1:

E|------------------------------------------------------------------------------------------
B|------------------------------------------------------------------------------------------
G|------------------------------------------------------------------------------------------
D|----------11--11------11--11----------11--11------11--11----------11--11------11--11------
A|------------------------------------------------------------------------------------------
E|--10--11----------11----------10--11----------11----------10--11----------11----------11--

Stave 2:

E|-------------------------------------------------------------------------------------
B|-------------------------------------------------------------------------------------
G|-------------------------------------------------------------------------------------
D|--14--14------14--14--------9--9-----9--9--------9--9-----9--9--------9--9-----9--9--
A|-------------------------------------------------------------------------------------
E|----------11----------8--9--------9--------8--9--------9--------8--9--------9--------

Stave 3:

E|--------------------------------------------------------------------------------------------
B|--------------------------------------------------------------------------------------------
G|--------------------------------------------------------------------------------------------
D|-----7--7-----6--6----------11--11------11--11----------11--11------11--11----------11--11--
A|--------------------------------------------------------------------------------------------
E|--7--------6--------10--11----------11----------10--11----------11----------10--11----------

Stave 4:

E|--------------------------------------------------------------------------------------------
B|--------------------------------------------------------------------------------------------
G|--------------------------------------------------------------------------------------------
D|------11--11------14--14------14--14--------9--9-----9--9--------9--9-----9--9--------9--9--
A|--------------------------------------------------------------------------------------------
E|--11----------11----------11----------8--9--------9--------8--9--------9--------8--9--------

Stave 5:

E|-----------------------------
B|-----------------------------
G|-----------------------------
D|-----9--9-----7--7-----6--6--
A|-----------------------------
E|--9--------7--------6--------

http://www.guitartabcreator.com
Guitar Tab Creator is intended to store guitar tab created through the tool. It currently does not support in-line text editing. Any text you place in here will be lost. If you need to comment on your tab, please use the "Tab Notes" section located below.