down under Dropped D

(/) Slide Up  (\) Slide Down  (h) Hammer On  (p) Pull Off  (b) Bend (r) Release (v) Vibrato


E|-------------------------------------------------------------------------------------------
B|-------------------------------------------------------------------------------------------
G|---------6--5--4--3--2--1-----------6--5--4--3----6--5--4-----------6--5--4--3--2--1-------
D|--0------5--4--3--2--1--0----0------5--4--3--2----5--4--3----0------5--4--3--2--1--0----0--
A|--0------6--5--4--3--2--1----0------6--5--4--3----6--5--4----0------6--5--4--3--2--1----0--
E|--0--------------------------0-------------------------------0--------------------------0--



E|-----------------------------------------------------------------------------------------------------
B|-----------------------------------------------------------------------------------------------------
G|---------------------------------------------------------------------------------------6----6--6--6--
D|---------------------------------------------------------------------------------------5----5--5--5--
A|---------0h5p0-----0-----3-----------0h5p0-----0-----3--2-----------0h5p0-----0-----3--6----6--6--6--
E|--0h5h6---------6-----0--3----0h5h6---------6-----0--3--2----0h5h6---------6-----0--3----------------



E|---------------------
B|---------------------
G|--6----6--7----7--6--
D|--5----5--6----6--5--
A|--6----6--7----7--6--
E|---------------------
http://www.guitartabcreator.com
Guitar Tab Creator is intended to store guitar tab created through the tool. It currently does not support in-line text editing. Any text you place in here will be lost. If you need to comment on your tab, please use the "Tab Notes" section located below.