cheetah duck

(/) Slide Up  (\) Slide Down  (h) Hammer On  (p) Pull Off  (b) Bend (r) Release (v) Vibrato


E|--1--------------------6--------------------------
B|--------------------5-----7-----------10----------
G|-----0-----------4-----------8------------11--13--
D|--------1-----3-----------------8-----------------
A|-----------2-----------------------7--------------
E|--------------------------------------------------



E|------------------------------10----------
B|----------------------------------10------
G|--------3--------5h3--7---------------10--
D|--1--2-------------------7p9--------------
A|-----------4------------------------------
E|--------------4---------------------------



E|--
B|--
G|--
D|--
A|--
E|--
http://www.guitartabcreator.com
Guitar Tab Creator is intended to store guitar tab created through the tool. It currently does not support in-line text editing. Any text you place in here will be lost. If you need to comment on your tab, please use the "Tab Notes" section located below.