Cello Suite #1 in G Major: Prelude

(/) Slide Up  (\) Slide Down  (h) Hammer On  (p) Pull Off  (b) Bend (r) Release (v) Vibrato
E|--------------------------------------------------------------------------------------------------
B|--------0-----0-----0-----------0-----0-----0-----------1--0--1-----1-----------1--0--1-----1-----
G|-----------2-----------------------2--------------------------------------------------------------
D|-----0-----------0-----0-----0-----------0-----0-----2-----------2-----2-----2-----------2-----2--
A|--------------------------------------------------------------------------------------------------
E|--3-----------------------3-----------------------3-----------------------3-----------------------



E|--------------------------------------------------------------------------------------------------
B|--------1--0--1-----1-----------1--0--1-----1-----------0-----0-----0-----------0-----0-----0-----
G|-----------------------------------------------------0-----2-----0-----0-----0-----2-----0--------
D|-----4-----------4-----4-----4-----------4-----4-----------------------------------------------4--
A|--------------------------------------------------------------------------------------------------
E|--3-----------------------3-----------------------3-----------------------3-----------------------



E|--------------------------------------------------------------------------------------------------
B|--------0-----0-----------------------------------------------------------------------------------
G|-----------2-----0-----0-----0-----0--------------------2-----2-----2-----------2-----2-----2-----
D|-----2--------------4-----2-----4--------0-----------5-----5-----5-----5-----5-----5-----5-----5--
A|--------------------------------------2-----4--2--4-----------------------4-----------------------
E|--3-----------------------------------------------------------------------------------------------



E|--------------------------------------------------------------------------------------------------
B|--------3--2--3-----------------------------------------------------------------------------------
G|-----2-----------2-----2-----2-----2--------------------------------------------------------------
D|--4-----------------5-----4-----5-----0--4--2--0--------5--4--5-----5-----------5--4--5-----5-----
A|-----------------------------------------------------2-----------2-----2-----2-----------2-----2--
E|--------------------------------------------------0-----------------------0-----------------------



E|--------------------------------------------------------------------------------------------------
B|-----------------------------------3--2--0-----------------3-----3--------------------------------
G|--------------------------------------------2--0--------------2--------2-----------2--------------
D|--------0--2--0-----------5--4--2-----------------4--2--0-----------4-----0--2--4-----5--4--2--0--
A|-----4-----------4--2--0--------------------------------------------------------------------------
E|--0-----------------------------------------------------------------------------------------------



E|--------------------------------------------------------------------------------------------------
B|--------------------------0--------------------------------0--1--------------------0--1-----------
G|--------------------------------------------------------2--------2--------------2--------2--------
D|--6-----3--2--3-----6-----------3--2--3-----6--------2--------------2--0-----2--------------4--2--
A|-----5-----------5-----5-----5-----------5-----5--3-----------------------3-----------------------
E|--------------------------------------------------------------------------------------------------



E|--------------------------------------------------------------------------------------------------
B|--------------------------------------------------------------------------------------------------
G|--------------2-----2-----------------2-----2-----------------------2-----------------------------
D|-----4-----4-----4-----4-----4-----4-----4-----4--5--4--2--5--4--5-----4--5--4--2--0--------------
A|--6-----6-----------------6-----6-----------------------------------------------------3--2--0-----
E|-----------------------------------------------------------------------------------------------3--



E|--------------------------------------------------------------------------------------------------
B|--------------------------------------------------------------------------------------------------
G|--------------------------------------------------------------------------------------------------
D|--------0-----0-----0-----------0-----0-----0-----------3--2--3-----3-----------3--2--3-----3-----
A|-----3-----3-----3-----3-----3-----3-----3-----3-----2-----------2-----2-----2-----------2-----2--
E|--2-----------------------2-----------------------3-----------------------3-----------------------



E|--------------------------------------------------------------------------------------------------
B|--------------------------------------------------------1--0--1-----1-----------1--0--1-----1-----
G|--------------------------------------------------------------------------------------------------
D|--------2--0--2-----2-----------2--0--2-----2--------4-----------4-----4-----4-----------4-----4--
A|-----3-----------3-----3-----3-----------3-----3--------------------------------------------------
E|--3-----------------------3-----------------------3-----------------------3-----------------------



E|--------------------------------------------------------------------------------------------------
B|--------0-----0-----------------------------------------------------------------------------------
G|-----------2-----0--------------------------------------------------------------------------------
D|-----0--------------4--2--0--------------------0--------2--4--5--2--4--5--------2--4--5--2--4--5--
A|-----------------------------3--2--0--------------4--0--------------------4--0--------------------
E|--3-----------------------------------3--2--0-----------------------------------------------------



E|--------------------------------------------------------------------------------------------
B|-----------------------------------------------------------------2--3-----------------------
G|--------------------------------------------------------------2-----------------------------
D|--------0--2--4--0--2--4--------0--2--4--0--2--4--------0--4--------------------0--2--4--5--
A|--3--0--------------------3--0--------------------3--0-----------------0--2--3--------------
E|--------------------------------------------------------------------------------------------



E|--
B|--
G|--
D|--
A|--
E|--
http://www.guitartabcreator.com
Guitar Tab Creator is intended to store guitar tab created through the tool. It currently does not support in-line text editing. Any text you place in here will be lost. If you need to comment on your tab, please use the "Tab Notes" section located below.