song

(/) Slide Up  (\) Slide Down  (h) Hammer On  (p) Pull Off  (b) Bend (r) Release (v) Vibrato


E|------10--
B|------10--
G|------10--
D|--10--12--
A|--10--12--
E|----------



E|--10-----7--6--10--
B|--10--9--7--6--10--
G|--10--9--8--6--10--
D|--12--9--9--7--12--
A|--12--7--9--7--12--
E|-------------------



E|--10--5--
B|--10--5--
G|--10--6--
D|--12--7--
A|--12--7--
E|---------
http://www.guitartabcreator.com
Guitar Tab Creator is intended to store guitar tab created through the tool. It currently does not support in-line text editing. Any text you place in here will be lost. If you need to comment on your tab, please use the "Tab Notes" section located below.