dddd

(/) Slide Up  (\) Slide Down  (h) Hammer On  (p) Pull Off  (b) Bend (r) Release (v) Vibrato


E|--------------------------
B|--------------------------
G|--------------------------
D|-----7-----2--------7-----
A|--8-----3-----3--8-----8--
E|--------------------------



E|--------------------------
B|--------------------------
G|--------------------------
D|-----7-----5--------2-----
A|--8-----7-----7--3-----3--
E|--------------------------



E|----------------------------------------
B|----------------------------------------
G|----------------------------------------
D|---------7---------7--------2--------2--
A|------8---------8--------3--------3-----
E|--10--------10--------5--------5--------



E|--
B|--
G|--
D|--
A|--
E|--
http://www.guitartabcreator.com
Guitar Tab Creator is intended to store guitar tab created through the tool. It currently does not support in-line text editing. Any text you place in here will be lost. If you need to comment on your tab, please use the "Tab Notes" section located below.