Steep Sweep

(/) Slide Up  (\) Slide Down  (h) Hammer On  (p) Pull Off  (b) Bend (r) Release (v) Vibrato
E|-----------------8--10--12--8-------------------------------8--9--11--8----------------
B|-------------10----------------10------------------------9---------------9-------------
G|----------9------------------------9------------------8---------------------8----------
D|------10------------------------------10----------10---------------------------10------
A|--12--------------------------------------12--11-----------------------------------11--
E|---------------------------------------------------------------------------------------



E|---------------6--8--10--6---------------------------6--7--9--6--------------
B|------------8---------------8---------------------7--------------7-----------
G|---------7---------------------7---------------6--------------------6--------
D|------8---------------------------8---------8--------------------------8-----
A|--10---------------------------------10--9--------------------------------9--
E|-----------------------------------------------------------------------------



E|--------------4--6--8--4--------------------------4--6--8--4--------------
B|-----------6--------------6--------------------6--------------6-----------
G|--------5--------------------5--------------5--------------------5--------
D|-----6--------------------------6--------6--------------------------6-----
A|--8--------------------------------8--8--------------------------------8--
E|--------------------------------------------------------------------------



E|--------------4--5--7--4--------------------------4--5--7--4--------------
B|-----------5--------------5--------------------5--------------5-----------
G|--------4--------------------4--------------4--------------------4--------
D|-----6--------------------------6--------6--------------------------6-----
A|--7--------------------------------7--7--------------------------------7--
E|--------------------------------------------------------------------------



E|-----------------8--10--12--8---------------------------------12--13--15--12---------------------
B|-------------10----------------10-------------------------13------------------13-----------------
G|----------9------------------------9------------------12--------------------------12-------------
D|------10------------------------------10----------14----------------------------------14---------
A|--12--------------------------------------12--15------------------------------------------15-----
E|-------------------------------------------------------------------------------------------------



E|------------------10--12--14--10----------------------------------10--11--13--10------------------
B|--------------12------------------12--------------------------11------------------11--------------
G|----------11--------------------------11------------------10--------------------------10----------
D|------12----------------------------------12----------12----------------------------------12------
A|--14------------------------------------------14--13------------------------------------------13--
E|--------------------------------------------------------------------------------------------------



E|--
B|--
G|--
D|--
A|--
E|--



E|-----------------8--10--12--8--------------------------------8--10--12--8-----------------
B|-------------10----------------10------------------------10----------------10-------------
G|----------9------------------------9------------------9------------------------9----------
D|------10------------------------------10----------10------------------------------10------
A|--12--------------------------------------12--12--------------------------------------12--
E|------------------------------------------------------------------------------------------



E|----------------8--9--11--8------------------------------8--9--11--8----------------
B|-------------9---------------9------------------------9---------------9-------------
G|----------8---------------------8------------------8---------------------8----------
D|------10---------------------------10----------10---------------------------10------
A|--11-----------------------------------11--11-----------------------------------11--
E|------------------------------------------------------------------------------------



E|-----------------8--10--12--8-----------------12--15--12--------------------------------------
B|-------------10----------------10---------13--------------13------15--13----------------------
G|----------9------------------------9--12----------------------12----------12------------------
D|------10----------------------------------------------------------------------14--------------
A|--12------------------------------------------------------------------------------15--12--15--
E|----------------------------------------------------------------------------------------------



E|------------------10--12--14--10------------------14--17--14--------------------------------------
B|--------------12------------------12----------15--------------15------17--15----------------------
G|----------11--------------------------11--14----------------------14----------14------------------
D|------12--------------------------------------------------------------------------16--------------
A|--14----------------------------------------------------------------------------------17--14--17--
E|--------------------------------------------------------------------------------------------------



E|----------------------------------------------13--16--13------------------------------------------
B|------------------------------------------15--------------15--------------------------------------
G|------------------13--16----------13--16----------------------16--13------------------------------
D|----------12--15----------12--15--------------------------------------15--12----------------------
A|--11--14----------------------------------------------------------------------14--11----------11--
E|--------------------------------------------------------------------------------------13--10------



E|---------------------------------------------------10--12--10---------------------------------
B|---------------------------------------10--12--13--------------13--12--10---------------------
G|----------------------------9--10--12--------------------------------------12--10--9----------
D|------9--10------9--10--12------------------------------------------------------------10------
A|--12---------12---------------------------------------------------------------------------12--
E|----------------------------------------------------------------------------------------------



E|--------------------------------------------------9--11--9--------------------------------
B|---------------------------------------9--11--13------------13--11--9---------------------
G|----------------------------8--10--12----------------------------------12--10--8----------
D|------8--10------8--10--11--------------------------------------------------------10------
A|--11---------11-----------------------------------------------------------------------11--
E|------------------------------------------------------------------------------------------



E|-----------------------------------------------8--10--8------------------------------
B|------------------------------------8--10--11------------11--10--8-------------------
G|--------------------------7--8--10----------------------------------10--8--7---------
D|------7--8------7--8--10------------------------------------------------------8------
A|--10--------10-------------------------------------------------------------------10--
E|-------------------------------------------------------------------------------------



E|-------------------------------------------7--9--7----------------------------
B|---------------------------------7--9--11-----------11--9--7------------------
G|-----------------------6--8--10-------------------------------10--8--6--------
D|-----6--8-----6--8--9---------------------------------------------------8-----
A|--9--------9---------------------------------------------------------------9--
E|------------------------------------------------------------------------------



E|-----------------------------------------6--8--6--------------------------
B|--------------------------------6--8--9-----------9--8--6-----------------
G|-----------------------5--6--8-----------------------------8--6--5--------
D|-----5--6-----5--6--8-----------------------------------------------6-----
A|--8--------8-----------------------------------------------------------8--
E|--------------------------------------------------------------------------



E|-----------------------------------------6--8--6--------------------------
B|--------------------------------6--8--9-----------9--8--6-----------------
G|-----------------------5--6--8-----------------------------8--6--5--------
D|-----5--6-----5--6--8-----------------------------------------------6-----
A|--8--------8-----------------------------------------------------------8--
E|--------------------------------------------------------------------------



E|-----------------------------------------5--7--5--------------------------
B|--------------------------------5--7--9-----------9--7--5-----------------
G|-----------------------4--6--8-----------------------------8--6--4--------
D|-----4--6-----4--6--7-----------------------------------------------6-----
A|--7--------7-----------------------------------------------------------7--
E|--------------------------------------------------------------------------



E|-----------------------------------------5--7--5--------------------------
B|--------------------------------5--7--9-----------9--7--5-----------------
G|-----------------------4--6--8-----------------------------8--6--4--------
D|-----4--6-----4--6--7-----------------------------------------------6-----
A|--7--------7-----------------------------------------------------------7--
E|--------------------------------------------------------------------------
http://www.guitartabcreator.com
Guitar Tab Creator is intended to store guitar tab created through the tool. It currently does not support in-line text editing. Any text you place in here will be lost. If you need to comment on your tab, please use the "Tab Notes" section located below.