Pent Chroms

(/) Slide Up  (\) Slide Down  (h) Hammer On  (p) Pull Off  (b) Bend (r) Release (v) Vibrato


E|--5--8--5--6--7--6--5-----------------------------------------------------------------------------
B|-----------------------8--5--8--5--6--7--6--5-----------------------------------------------------
G|-----------------------------------------------7--5--8--5--6--7--6--5-----------------------------
D|-----------------------------------------------------------------------7--5--9--5--6--7--6--5-----
A|-----------------------------------------------------------------------------------------------7--
E|--------------------------------------------------------------------------------------------------



E|-----------------------------
B|-----------------------------
G|-----------------------------
D|-----------------------------
A|--5--9--5--6--7--6--5--------
E|-----------------------8--5--
http://www.guitartabcreator.com
Guitar Tab Creator is intended to store guitar tab created through the tool. It currently does not support in-line text editing. Any text you place in here will be lost. If you need to comment on your tab, please use the "Tab Notes" section located below.