ultimate song

(/) Slide Up  (\) Slide Down  (h) Hammer On  (p) Pull Off  (b) Bend (r) Release (v) Vibrato

E|----------------------------------------------------------------------------------------------
B|----------------------------------------------------------------------------------------------
G|------------------------------------------------7--7--7--7----7--7--7--9--9--9--9----9--9--9--
D|--4--4--4--4----4--4--4--7--7--7--7----7--7--7--7--7--7--7----7--7--7--9--9--9--9----9--9--9--
A|--4--4--4--4----4--4--4--7--7--7--7----7--7--7--5--5--5--5----5--5--5--7--7--7--7----7--7--7--
E|--2--2--2--2----2--2--2--5--5--5--5----5--5--5------------------------------------------------



E|----------------------------------------------------------------------------------------------
B|----------------------------------------------------------------------------------------------
G|------------------------------------------------7--7--7--7----7--7--7--4--4--4--4----4--4--4--
D|--4--4--4--4----4--4--4--7--7--7--7----7--7--7--7--7--7--7----7--7--7--4--4--4--4----4--4--4--
A|--4--4--4--4----4--4--4--7--7--7--7----7--7--7--5--5--5--5----5--5--5--2--2--2--2----2--2--2--
E|--2--2--2--2----2--2--2--5--5--5--5----5--5--5----------------5-------------------------------



E|--------------------------------|------------|------------|--
B|--------------------------------|------------|------------|--
G|--------------------------------|------------|------------|--
D|---------------------------7----|-------9----|-------4----|--
A|--2--4--------2--7------2--5----|----2--7----|----2--2----|--
E|--0--2--------0--5------0-------|----0-------|----0-------|--








E|-----|------------------|--
B|-----|------------------|--
G|-----|------------------|--
D|--4--|----4--4--4--4----|--
A|--4--|----4--4--4--4----|--
E|--2--|----2--2--2--2----|--



E|------------------
B|------------------
G|--7--3---------5--
D|--7--3------3--5--
A|--5--1------3--3--
E|------------1-----



E|--------
B|--3-----
G|--------
D|--------
A|--------
E|--------



E|--3--1--3--1--3--1--3--1--------------------------
B|--------------------------3--1--3--1--3--1--3--1--
G|--------------------------------------------------
D|--------------------------------------------------
A|--------------------------------------------------
E|--------------------------------------------------



E|----------------------|--
B|----------------------|--
G|--7--3----5-----------|--
D|--7--3----5--7--------|--
A|--5--1----3--7--------|--
E|-------------5--------|--
http://www.guitartabcreator.com
Guitar Tab Creator is intended to store guitar tab created through the tool. It currently does not support in-line text editing. Any text you place in here will be lost. If you need to comment on your tab, please use the "Tab Notes" section located below.