riff

(/) Slide Up  (\) Slide Down  (h) Hammer On  (p) Pull Off  (b) Bend (r) Release (v) Vibrato
E|--------------------------------------------------|--
B|--------------------------------------------------|--
G|--------------------------------------------------|--
D|--------------------------------------------------|--
A|--------------------------------------------------|--
E|--0--0--3--0--5--0--3--0--0--0--3--0--5--0--3--0--|--



E|-----------------|--
B|-----------------|--
G|-----------------|--
D|--5----7----5----|--
A|--5----7----5----|--
E|--3----5----3----|--



E|-----------------------------------------------|-----
B|-----------------------------------------------|-----
G|-----------------------------------------------|-----
D|-----------------------------------------------|-----
A|-----------------------------------------------|-----
E|--0--0--3--3--5--5--3--3--0--0--3--3--0--0--0----|-----



E|---------------------------------|--
B|---------------------------------|--
G|---------------------------------|--
D|---------------------------------|--
A|--2--2----5--5----10--10----9----|--
E|--0--0----3--3----8---8-----7----|--



E|-----
B|-----
G|-----
D|-----
A|-----
E|-----



E|---------------
B|---------------
G|---------------
D|--2--5--10--9--
A|--2--5--10--9--
E|--0--3--8---0--
http://www.guitartabcreator.com
Guitar Tab Creator is intended to store guitar tab created through the tool. It currently does not support in-line text editing. Any text you place in here will be lost. If you need to comment on your tab, please use the "Tab Notes" section located below.