old rock

(/) Slide Up  (\) Slide Down  (h) Hammer On  (p) Pull Off  (b) Bend (r) Release (v) Vibrato
E|--------------------------------------------------------------------------------------------------
B|--------------------------------------------------------------------------------------------------
G|--------------------------------------------------------------------------------------------------
D|--------------------------4-----------------------6-----------------------------------------------
A|--2-----------------------2--2--2--2--2--2--2--2--4--4--4--4--4--4--4--4--7-----------------------
E|--0--0--0--0--0--0--0--0--------------------------------------------------5--5--5--5--5--5--5--5--



E|------------------------------------------------------------------------------------------------------
B|------------------------------------------------------------------------------------------------------
G|------------------------------------------------------------------------------------------------------
D|--------------------------4-----------------------6----------------------------------4--4-------------
A|--2-----------------------2--2--2--2--2--2--2--2--4--4--4--4--4--4--4--4--7----6--4--2--2----7--6--4--
E|--0--0--0--0--0--0--0--0--------------------------------------------------5----4--2--0-------5--4--2--



E|--
B|--
G|--
D|--
A|--
E|--
http://www.guitartabcreator.com
Guitar Tab Creator is intended to store guitar tab created through the tool. It currently does not support in-line text editing. Any text you place in here will be lost. If you need to comment on your tab, please use the "Tab Notes" section located below.