acdc thing

(/) Slide Up  (\) Slide Down  (h) Hammer On  (p) Pull Off  (b) Bend (r) Release (v) Vibrato
E|---------------------------------
B|---------------------------------
G|---------------------------------
D|--4--4----7----7--------------4--
A|--4--4----7----7----2--2------4--
E|--2--2----5----5----0--0------2--



E|-----------------------------------------------------
B|-----------------------------------------------------
G|-----------------------------------------------------
D|--4--------4--4----7--------4--------4--4------14\2--
A|--4--2--2--4--4----7--------4--2--2--4--4------14-2--
E|--2--0--0--2--2----5--------2--0--0--2--2------12-0--
http://www.guitartabcreator.com
Guitar Tab Creator is intended to store guitar tab created through the tool. It currently does not support in-line text editing. Any text you place in here will be lost. If you need to comment on your tab, please use the "Tab Notes" section located below.