elvenwood

(/) Slide Up  (\) Slide Down  (h) Hammer On  (p) Pull Off  (b) Bend (r) Release (v) Vibrato


E|--------------------------------------12----------------------------------
B|------------------------------12--13------13--------------12--------------
G|------------------12--11----------------------14--11----------12----------
D|----------14--14----------14--------------------------14----------14------
A|--12--14--------------------------------------------------------------14--
E|--------------------------------------------------------------------------



E|------------------------------------------------------------------12--------------------------
B|----------------------------------12----------13--15--12--13--15------15--12--12--13--12--13--
G|--------------------------11--14------14--14--------------------------------------------------
D|------12--------------------------------------------------------------------------------------
A|--15------15--14--12--14----------------------------------------------------------------------
E|----------------------------------------------------------------------------------------------



E|--------------------------------------------------12--
B|--12--------------------------------------------------
G|------11--12--------------------------11--12--14------
D|--------------12--14----------14--14------------------
A|----------------------15--14--------------------------
E|------------------------------------------------------



E|--
B|--
G|--
D|--
A|--
E|--
http://www.guitartabcreator.com
Guitar Tab Creator is intended to store guitar tab created through the tool. It currently does not support in-line text editing. Any text you place in here will be lost. If you need to comment on your tab, please use the "Tab Notes" section located below.