work in progress

(/) Slide Up  (\) Slide Down  (h) Hammer On  (p) Pull Off  (b) Bend (r) Release (v) Vibrato

Stave 1:

E|--2--x----------------------------------
B|--0--x----------------------------------
G|--2--x----------0--------0--------------
D|--0--x----------------------------------
A|--2--x----------------------3--3--------
E|--2--x--0h1--1-----0--0-----------------

Stave 2:

E|--2--x---------------------------------
B|--0--x---------------------------------
G|--2--x---------------------------------
D|--0--x--------5h4----3--0--------0-----
A|--2--x--0--0---------------3--2--------
E|--0--x------------------------------3--

http://www.guitartabcreator.com
Guitar Tab Creator is intended to store guitar tab created through the tool. It currently does not support in-line text editing. Any text you place in here will be lost. If you need to comment on your tab, please use the "Tab Notes" section located below.