Texas Flood licks

(/) Slide Up  (\) Slide Down  (h) Hammer On  (p) Pull Off  (b) Bend (r) Release (v) Vibrato


E|--------3--------5--3h5p3-----3--b6--6--3----------------------------|
B|15--------3-----6--3------------6---------------3-------------------------|
G|-------b5------------------------------------------b5--b3-----------------|
D|-----------------------------------------------------------5--5-----------|
A|--------------------------------------------------------------------------|
E|--------------------------------------------------------------------------|
G

E|-------------------0-----------b8--6---------------6----------------------|
B|-------------------0------8--8--------8--8----8--8----8--6----------------|
G|--4-------------5-------------------------------------------b*5-3--3------|
D|-----5----------4-----------------------------------------------------5---|
A|---------3-4-5------------------------------------------------------------|
E|--------------------------------------------------------------------------|


E|-b6-------6-6-6----b8---b7--bb7-----6------------------------3----------3-|
B|--------------------------------------8---6-3-------------------------3---|
G|-----------------------------------------------b*5-3---3-b5-----3--b5-----|
D|-----------------------------------------------------5--------------------|
A|--------------------------------------------------------------------------|
E|--------------------------------------------------------------------------|
G


E|-------3su5--3su5--3su5-5sd3--------3-------------------------------------|
B|-6--3-------------------------6-------6--3---------------3--3-3---b6------|
G|--------------------------------b5----------b5--5--3--b5------------------|
D|--------------------------------------------------------------------------|
A|--------------------------------------------------------------------------|
E|--------------------------------------------------------------------------|
D7 C


E|-----3------------------------3-------------------------------------------|
B|----------------------------3---6-3---------------------------------------|
G|--------b5--b5---5p3-----b5----------b5-5-3-------------------------------|
D|----------------------5---------------------5--3--------------------------|
A|--------------------------------------------------5-4-3h4p3---------------|
E|--------------------------------------------------------------6--3--------|
G C G

E|-------------------------------------|------------------------3-3---------|
B|-------------------------------------|------------------------5-5---------|
G|-----------------------------------5-|------------------------4-4---------|
D|--5p3h5p3h5p3h5p3h5--5p3h5-----------|------------------------------------|
A|----------------------------3-4-5----|------------------------------------|
E|-------------------------------------|----------------------3-----3-3-----|



E|------3--------6-3-------------|------------------------------------------|
B|----3---b6---------3-----------|------------------------------------------|
G|-b5------------------b5-b*5--3-|--su5-----------------------3-------------|
D|-------------------------------|------5----5-3----------3h5---5p3---------|
A|-------------------------------|---------------5-4-3--------------5-------|
E|-------------------------------|---------------------6--------------------|
Well Dark


E|------------------3---3--------|------------------------------------------|
B|------------------3---3-5--3---|-3----------------------------------------|
G|------------------3---3-5--3---|-3----------------------------------------|
D|-----------------------------5-|------------------------------------------|
A|-------------------------------|------------------------------------------|
E|---------------3---------------|------------------------------------------|
clouds are rollin and Im standin out in the rain

E|-------3--------6-----6-b8--|-su8--6---3-----------------3----------------|
B|-----3---b6-------8---------|-------8----6--------------------------------|
G|-b5-------------------------|--------------b*5--3---3b5----3--------------|
D|----------------------------|---------------------5-----------5p3---------|
A|----------------------------|-------------------------------------5-4-3---|
E|----------------------------|-------------------------------------------6-|
Guitar Tab Creator is intended to store guitar tab created through the tool. It currently does not support in-line text editing. Any text you place in here will be lost. If you need to comment on your tab, please use the "Tab Notes" section located below.