QOTSA sounding...

(/) Slide Up  (\) Slide Down  (h) Hammer On  (p) Pull Off  (b) Bend (r) Release (v) Vibrato


E|----------------------------------
B|----------------------------------
G|----------------------------------
D|----------------14----------------
A|------10h12h13------13p12p10------
E|--12--------------------------12--



E|----------15--------------------
B|--------------------------------
G|--14b16v------16v--14b16v--14v--
D|--------------------------------
A|--------------------------------
E|--------------------------------



E|---------12------15b18--15v--12h15p12---------12h15p12---------12--15---------12--15------------
B|--15b17------12------------------------15b17------------15b17----------15b17----------15b17-----
G|------------------------------------------------------------------------------------------------
D|------------------------------------------------------------------------------------------------
A|------------------------------------------------------------------------------------------------
E|------------------------------------------------------------------------------------------------



E|--12--15---------12--15---------12h15p12-----------------------------------------------------------------
B|----------15b17----------15b17------------15b19--15v--15p12--15p12---------------------------------------
G|--------------------------------------------------------------------14b16--14v--14b15r14p12--------------
D|---------------------------------------------------------------------------------------------14--14v-----
A|---------------------------------------------------------------------------------------------------------
E|---------------------------------------------------------------------------------------------------------



E|------------------
B|------12--12v--v--
G|------12--12------
D|--12--12--12------
A|------------------
E|------------------



E|---------------------12------12------12------12--------------------------12--
B|---------------------------------------------------------------------12--12--
G|----------12--14b16------16------15------15------14p12---------------12------
D|--12--14------------------------------------------------14--14v--14----------
A|-----------------------------------------------------------------------------
E|-----------------------------------------------------------------------------
http://www.guitartabcreator.com
Guitar Tab Creator is intended to store guitar tab created through the tool. It currently does not support in-line text editing. Any text you place in here will be lost. If you need to comment on your tab, please use the "Tab Notes" section located below.