Phil Mixed Licks

(/) Slide Up  (\) Slide Down  (h) Hammer On  (p) Pull Off  (b) Bend (r) Release (v) Vibrato

E|-------7-----7\6-----6\5-----5----------------------------
B|--5/8-----8-------8-------8-----8p5--------5-----8--8-----
G|-------------------------------------7--7-----6-----------
D|----------------------------------------------------------
A|----------------------------------------------------------
E|----------------------------------------------------------



E|--------7--10b12r10b12p10b12v--------------------------------------------10p7------7--10b12--
B|-----8-------------------------------------------------------10p8-----8--------10------------
G|--9-----------------------------------------------9p7-----7--------9-------------------------
D|--------------------------------------9p7------7-------9-------------------------------------
A|-------------------------------7--10-------10------------------------------------------------
E|---------------------------------------------------------------------------------------------


http://www.guitartabcreator.com
Guitar Tab Creator is intended to store guitar tab created through the tool. It currently does not support in-line text editing. Any text you place in here will be lost. If you need to comment on your tab, please use the "Tab Notes" section located below.