Phil Mixed Licks

(/) Slide Up  (\) Slide Down  (h) Hammer On  (p) Pull Off  (b) Bend (r) Release (v) Vibrato

E|--12---------15b17--12--------------
B|------15p12-------------12--15b17v--
G|------------------------------------
D|------------------------------------
A|------------------------------------
E|------------------------------------



E|------------------------------------------------------------
B|------------------------------------------------------------
G|--12-------------12---------14b15r14p12------12-------------
D|------14b12----------14p12---------------14------14p12--14--
A|-------------14---------------------------------------------
E|------------------------------------------------------------



E|--10p8p5h8p5--------------
B|--------------10p8p5h8p5--
G|--------------------------
D|--------------------------
A|--------------------------
E|--------------------------



E|-----------------------
B|-----------------------
G|----------14b15r14p12--
D|--14--12---------------
A|-----------------------
E|-----------------------



E|--12----------------12---------15b16--
B|------15p12--15b16------15p12---------
G|--------------------------------------
D|--------------------------------------
A|--------------------------------------
E|--------------------------------------



E|--
B|--
G|--
D|--
A|--
E|--
http://www.guitartabcreator.com
Guitar Tab Creator is intended to store guitar tab created through the tool. It currently does not support in-line text editing. Any text you place in here will be lost. If you need to comment on your tab, please use the "Tab Notes" section located below.