Phil Blues Lick-1

(/) Slide Up  (\) Slide Down  (h) Hammer On  (p) Pull Off  (b) Bend (r) Release (v) Vibrato


E|----------3--------6-----3----------------------------3--6b8v--6-----8-----------11b13--
B|-------3-----6b8v-----8-----6--5-------------------3--------------8-----11--10v---------
G|--5b7-----------------------------3--3--3b5v--5b7---------------------------------------
D|----------------------------------------------------------------------------------------
A|----------------------------------------------------------------------------------------
E|----------------------------------------------------------------------------------------



E|--13r11--10---------------------
B|-------------11--11--11b13r11v--
G|--------------------------------
D|--------------------------------
A|--------------------------------
E|--------------------------------
http://www.guitartabcreator.com
Guitar Tab Creator is intended to store guitar tab created through the tool. It currently does not support in-line text editing. Any text you place in here will be lost. If you need to comment on your tab, please use the "Tab Notes" section located below.