DoubleStop

(/) Slide Up  (\) Slide Down  (h) Hammer On  (p) Pull Off  (b) Bend (r) Release (v) Vibrato

E|--10b12-----10--
B|---------12r10--
G|----------------
D|----------------
A|----------------
E|----------------



E|----------------
B|--14b15-----14--
G|---------15r14--
D|----------------
A|----------------
E|----------------



E|--------------------------------------------------------------------------------------------
B|--15b17r15b20r15--15p12--------------------------------------12-12--------------------------
G|-------------------------14b16r14b19r14p12------12b13r12b15--15r12--------------------------
D|--------------------------------------------14----------------------14p12--14v--b17r14v-----
A|--------------------------------------------------------------------------------------------
E|--------------------------------------------------------------------------------------------



E|--15-17r15-18r15---12---------------------
B|--15b17-15b18-15v------12---------15b17v--
G|---------------------------14p12----------
D|------------------------------------------
A|------------------------------------------
E|------------------------------------------



E|----------------------------------------------------------------12--
B|---------14b15r14------12----------------15---------------------12--
G|---------14-15-14------12---------14b15--15r14p12---------------12--
D|--14p12------------14------14p12-------------------14--14v--14--14--
A|--------------------------------------------------------------------
E|--------------------------------------------------------------------
http://www.guitartabcreator.com
Guitar Tab Creator is intended to store guitar tab created through the tool. It currently does not support in-line text editing. Any text you place in here will be lost. If you need to comment on your tab, please use the "Tab Notes" section located below.