Arms Wide Open - Creed

(/) Slide Up  (\) Slide Down  (h) Hammer On  (p) Pull Off  (b) Bend (r) Release (v) Vibrato
E|-------------------------------------------------------------------------------------------------
B|--0h1-----------1--------1h3-----1--------0h1p0--0h1-----------1--------3--------1--------0h1p0--
G|-------0-----------0----------------0-----------------0-----------0--------0--------0------------
D|----------0----------------------------------------------0---------------------------------------
A|--3----------3--------3-------3--------3---------2----------2--------2--------2--------2---------
E|-------------------------------------------------------------------------------------------------



E|--------------------------------------------------------------------------------------------------
B|--0h1-----------1--------0h1p0-----------0--------0h1-----------1--------0h1p0-----------0--------
G|-------0-----------0------------0-----------0----------0-----------0------------0-----------0-----
D|----------0------------------------0----------------------0------------------------0--------------
A|--0----------0--------0---------------0--------0--0----------0--------0---------------0--------0--
E|--------------------------------------------------------------------------------------------------



E|----------------------------------------------------
B|--0h1-----------1--------1h3--------1--------0h1p0--
G|-------0-----------0----------0--------0------------
D|----------0-----------------------------------------
A|--2----------2--------2----------2--------2---------
E|----------------------------------------------------



E|---3---3---3---3---3---3---3---3---3---3---3---3---2---2---2---2---2---0---0---0---0---0---
B|---6---6---6---6---6---3---3---3---3---3---3---3---5---5---5---5---5---3---3---3---3---3---
G|---5---5---5---5---5---5---5---5---5---5---5---5---4---4---4---4---4---2---2---2---2---2---
D|---3---3---3---3---3---5---5---5---5---5---5---5---2---2---2---2---2---0---0---0---0---0---
A|---3---3---3---3---3---3---3---3---3---3---3---3---2---2---2---2---2---0---0---0---0---0---
E|---3---3---3---3---3-------------------------------2---2---2---2---2---0---0---0---0---0---
Guitar Tab Creator is intended to store guitar tab created through the tool. It currently does not support in-line text editing. Any text you place in here will be lost. If you need to comment on your tab, please use the "Tab Notes" section located below.