Ain't Talkin Bout Love - Van Halen

(/) Slide Up  (\) Slide Down  (h) Hammer On  (p) Pull Off  (b) Bend (r) Release (v) Vibrato 

Intro
E|--------------0--1--------3--------------------
B|--------1-----------1--------3-----------------
G|-----------2-----------0--------0--------------
D|-----2-----------------------------------------
A|--0--------------------------------3v--2h3-----
E|-----------------------------------------------
|---------- Palm Mute ---------| PH

Chorus
E|--------------------------------------------------------------------------------
B|--------------3-------------------------------3---------------------------------
G|----2-xx-2-xx-0---------------------2-xx-2-xx-0----0/5----5/7----7/9----9/12----
D|----2-xx-2-xx-0---------------------2-xx-2-xx-0---------------------------------
A|----0-xx-0-xx-0----0----3----2h3----0-xx-0-xx-0---------------------------------
E|--------------3-------------------------------3---------------------------------
PM

Verse
E|--------------1-----3-------------
B|--------1--------1--3-------------
G|-----------2--------0-------------
D|-----2----------------------------
A|--0--------------------0--3--2h3--
E|----------------------------------
Guitar Tab Creator is intended to store guitar tab created through the tool. It currently does not support in-line text editing. Any text you place in here will be lost. If you need to comment on your tab, please use the "Tab Notes" section located below.