you to me are everything

(/) Slide Up  (\) Slide Down  (h) Hammer On  (p) Pull Off  (b) Bend (r) Release (v) Vibrato

Stave 1:

E|--------------|-----------------------------------|-------------------------------------
B|--------------|-----------------------------------|-------------------------------------
G|--------------|----------5--5------5--------------|-------------------------------------
D|--------------|-------5---------------7--5-----5--|---------------7--7------7--5--------
A|--------3-----|--3--------------------------7-----|--0--0------7------------------7-----
E|--3--5-----5--|-----------------------------------|----------------------------------8--

Stave 2:

E|-------------------------------------|--------------------------------------------
B|-------------------------------------|--------------------------------------------
G|------------7--7------7--------------|--------------------------------------------
D|---------7---------------7--7--------|--------------------------------------------
A|--5----------------------------8--8--|--10--10--7--7------------10--10--7--7------
E|-------------------------------------|----------------10----------------------10--

Stave 3:

E|----------------------------------------------|--------------------------------------------------
B|----------------------------------------------|--------------------------------------------------
G|----------------------------------------------|--------------------------------------------------
D|----------------10--10----------7--7----------|--------------10--10----------7--7----------------
A|------------10--------------10--------10--10--|----------10--------------10--------10--10--------
E|--8--8----------------------------------------|--8--8--------------------------------------------

Stave 4:

E|-------------------------------------|----------------------------------------
B|-------------------------------------|----------------------------------------
G|-------------------------------------|----------------------------------------
D|---------------7--7------5--5--7--5--|---------------7--7------7--------------
A|------------7------------------------|------------7---------------7--0--3--4--
E|--5--5-------------------------------|--5--5----------------------------------

Stave 5:

E|-------------------------------------|----------------------------------|---------------------------------|--
B|-------------------------------------|----------------------------------|---------------------------------|--
G|---------------7--7------------------|----------------------------------|-------------7--7----7-----7-----|--
D|------------7------------5-----5-----|------------7--7------5-----5-----|----------7-------------7-----7--|--
A|--5--5----------------------7-----7--|---------7---------------7-----7--|--5--5---------------------------|--
E|-------------------------------------|--5-------------------------------|---------------------------------|--

Stave 6:

E|----------------------------
B|----------------------------
G|----------------------------
D|--5--5----------5--5--------
A|--------7--5----------7--5--
E|----------------------------

Stave 7:

E|---------------------------------|---------------------------------|---------------------------|-------------------------
B|---------------------------------|---------------------------------|---------------------------|-------------------------
G|---------------------------------|---------------------------------|---------------------------|-------------------------
D|---------------------------------|---------------------------------|---------------------------|--5--5----5--7--5--------
A|--3--3----------3----------------|--3--3----------3----------3-----|--5--5----------5----7--5--|-------------------5--7--
E|----------3--5-------5--3--5--3--|----------3--5-------3--5-----5--|----------3--5-------------|-------------------------

http://www.guitartabcreator.com
Guitar Tab Creator is intended to store guitar tab created through the tool. It currently does not support in-line text editing. Any text you place in here will be lost. If you need to comment on your tab, please use the "Tab Notes" section located below.