respect

(/) Slide Up  (\) Slide Down  (h) Hammer On  (p) Pull Off  (b) Bend (r) Release (v) Vibrato

Stave 1:

E|-----------------------------|-----------------|-----------------------------|-----------------
B|-----------------------------|-----------------|-----------------------------|-----------------
G|-----------------------------|-----------------|-----------------------------|-----------------
D|-----------------------------|--------------1--|-----------------------------|--------------1--
A|--3--3--------1--3--3--1-----|-----0--1--2-----|--3--3--------1--3--3--1-----|-----0--1--2-----
E|--------1--3--------------3--|--1--------------|--------1--3--------------3--|--1--------------

Stave 2:

E|-----------------------------|--------------------|--
B|-----------------------------|--------------------|--
G|-----------------------------|--------------------|--
D|--5--5--------3--5--5--3-----|--3--------------3--|--
A|--------3--5--------------5--|-----0--1--2--3-----|--
E|-----------------------------|--------------------|--

Stave 3:

E|-----------------------|-----------------------|-----------------------|--------------------
B|-----------------------|-----------------------|-----------------------|--------------------
G|-----------------------|-----------------------|-----------------------|--------------------
D|--4--4-----4--4--4-----|--4--4-----2--4--4-----|-----------------------|--------------------
A|--------4-----------4--|--------4-----------4--|--2--2-----0--2--2-----|--2--2-----0--2--2--
E|-----------------------|-----------------------|--------2-----------2--|--------2-----------

Stave 4:

E|-----------------------|-----------------------|--------------------|-----------------------
B|-----------------------|-----------------------|--------------------|-----------------------
G|-----------------------|-----------------------|--------------------|-----------------------
D|--4--4-----4--4--4-----|--4--4-----2--4--4-----|--5--5-----3--5--5--|--5--5-----3--5--5--5--
A|--------4-----------4--|--------4-----------4--|--------5-----------|--------5--------------
E|-----------------------|-----------------------|--------------------|-----------------------

Stave 5:

E|-----|--------|--------|--------|--
B|-----|--------|--------|--------|--
G|-----|--------|--------|--------|--
D|-----|--1--3--|--------|--1--3--|--
A|--3--|--------|--1--3--|--------|--
E|-----|--------|--------|--------|--

http://www.guitartabcreator.com
Guitar Tab Creator is intended to store guitar tab created through the tool. It currently does not support in-line text editing. Any text you place in here will be lost. If you need to comment on your tab, please use the "Tab Notes" section located below.