just because

(/) Slide Up  (\) Slide Down  (h) Hammer On  (p) Pull Off  (b) Bend (r) Release (v) Vibrato

Stave 1:

E|-------------------------------------------------------------
B|-------------------------------------------------------------
G|-----2--4--4--2--4--2----------------------------------------
D|--4--------------------4--3--2------2--3--2--0---------------
A|------------------------------------------------2------0-----
E|----------------------------------------------------------2--

Stave 2:

E|----------------------|-------------------|-------------------|----------------------|--
B|----------------------|-------------------|-------------------|----------------------|--
G|----------------------|-------------------|-------------------|----------------------|--
D|--------------4--1----|-------------------|-------------------|--------------4--1----|--
A|--------1--2----------|--1--------4--1----|--1--------4--1----|--------1--2----------|--
E|--2--4----------------|-----4--2----------|-----4--2----------|--2--4----------------|--

Stave 3:

E|---------------------|------------|---------------------|-------------------------------------------
B|---------------------|------------|---------------------|-------------------------------------------
G|---------------------|------------|---------------------|-------------------------------------------
D|--2---------2--4--2--|--1---------|---------------------|-------------------------2--3--4-----------
A|-----4---------------|-----2------|--4---------2--4--2--|--1-----------2--3--4----------------------
E|---------------------|------------|-----4---------------|-----2-------------------------------------

http://www.guitartabcreator.com
Guitar Tab Creator is intended to store guitar tab created through the tool. It currently does not support in-line text editing. Any text you place in here will be lost. If you need to comment on your tab, please use the "Tab Notes" section located below.