Mara Lima - Eu Navegarei

(/) Slide Up  (\) Slide Down  (h) Hammer On  (p) Pull Off  (b) Bend (r) Release (v) Vibrato


E|---------------------------|----------------5-----5p7-----|--------------------------
B|--1\5-----------4\5--4\5v--|--1\5--5--5--5-----8-------8--|--6h8--6p8--5p6-----5--6--
G|-------7--5--7-------------|------------------------------|-----------------7--------
D|---------------------------|------------------------------|--------------------------
A|---------------------------|------------------------------|--------------------------
E|---------------------------|------------------------------|--------------------------



E|-------------------------------|----------------5--3p5-----|---------------------------
B|--6--5-----6--5-----5h6-----5--|--5h6--6--6--6----------5--|--1\5-----------4\5--4\5v--
G|--------7--------7-------7-----|---------------------------|-------7--5--7-------------
D|-------------------------------|---------------------------|---------------------------
A|-------------------------------|---------------------------|---------------------------
E|-------------------------------|---------------------------|---------------------------



E|----------------5-----5p7-----|--------------------------|----------------5--3p5-----
B|--1\5--5--5--5-----8-------8--|--6h8--6p8--5p6-----5--6--|--5h6--6--6--6----------5--
G|------------------------------|-----------------7--------|---------------------------
D|------------------------------|--------------------------|---------------------------
A|------------------------------|--------------------------|---------------------------
E|------------------------------|--------------------------|---------------------------



E|--7--7p8------7--7p8------|--5\8--8--8--8--10--8--
B|----------10----------10--|-----------------------
G|--------------------------|-----------------------
D|--------------------------|-----------------------
A|--------------------------|-----------------------
E|--------------------------|-----------------------
http://www.guitartabcreator.com
Guitar Tab Creator is intended to store guitar tab created through the tool. It currently does not support in-line text editing. Any text you place in here will be lost. If you need to comment on your tab, please use the "Tab Notes" section located below.