Riff after main riff with diminished chords

(/) Slide Up  (\) Slide Down  (h) Hammer On  (p) Pull Off  (b) Bend (r) Release (v) Vibrato


E|--------------------------------------------------------------------------------------------------
B|--------------------------------------------------------------------------------------------------
G|--------------------6--6--6--6--6--9--9--9--9--9--------------------------------------------------
D|--------------2--2--------------------------------------------------------------------------------
A|--1-----------1--1--4--4--4--4--4--7--7--7--7--7-----------7-----------------6--------------------
E|--0--0--0--0--------------------------------------7--6--5-----6--5--6--5--4-----5--4--4--3--2--0--



E|--------------------------
B|--------------------------
G|--------------------------
D|-----------2--------1-----
A|--------4-----4--3-----3--
E|--2--3--------------------



E|--------------------------------------------------------------------------------------------------
B|--------------------------------------------------------------------------------------------------
G|--------------------6--6--6--6--6--9--9--9--9--9--------------------------------------------------
D|--------------2--2--------------------------------------------------------------------------------
A|--1-----------1--1--4--4--4--4--4--7--7--7--7--7-----------7-----------------6--------------------
E|--0--0--0--0--------------------------------------7--6--5-----6--5--6--5--4-----5--4--4--3--2--0--



E|--------------------
B|--------------------
G|--------------------
D|--------5--5--5--4--
A|--------7--7--7--6--
E|--2--3--0--0--0-----
http://www.guitartabcreator.com
Guitar Tab Creator is intended to store guitar tab created through the tool. It currently does not support in-line text editing. Any text you place in here will be lost. If you need to comment on your tab, please use the "Tab Notes" section located below.