Main Riff, Triplet feel

(/) Slide Up  (\) Slide Down  (h) Hammer On  (p) Pull Off  (b) Bend (r) Release (v) Vibrato

E|------------------------------------------------------------------------------------------
B|------------------------------------------------------------------------------------------
G|------------------------------------------------------------------------------------------
D|---------------------------------------------------------------------10-------------------
A|--0--0--0--5h7--0--------------------0--0--0--5h7--0--------------9------0--0--0--5h7--0--
E|-------------------8--6--5--3--5--6-------------------8--6--5--8--------------------------



E|--------------------------------------------------------
B|--------------------------------------------------------
G|--------------------------------------------------------
D|--------------------------------------------8--------7--
A|-----------------------------1--0--------7--------6-----
E|--8--6--5--3--5--6--0--2--3--------2--6--------5--------



E|------------------------------------------------------------------------------------------
B|------------------------------------------------------------------------------------------
G|------------------------------------------------------------------------------------------
D|---------------------------------------------------------------------10-------------------
A|--0--0--0--5h7--0--------------------0--0--0--5h7--0--------------9------0--0--0--5h7--0--
E|-------------------8--6--5--3--5--6-------------------8--6--5--8--------------------------



E|--------------------------------------------------
B|--------------------------------------------------
G|--------------------------------------------------
D|--------------------------------------1--1--1--0--
A|-----------------------------1--0-----------------
E|--8--6--5--3--5--6--0--2--3--------2--------------
http://www.guitartabcreator.com
Guitar Tab Creator is intended to store guitar tab created through the tool. It currently does not support in-line text editing. Any text you place in here will be lost. If you need to comment on your tab, please use the "Tab Notes" section located below.