Nuclear Zero.

(/) Slide Up  (\) Slide Down  (h) Hammer On  (p) Pull Off  (b) Bend (r) Release (v) Vibrato

E|--------------------------------------------------------------------------------------------------------------
B|--------------------------------------------------------------------------------------------------------------
G|--------------------------------------------------------------------------------------------------------------
D|-----4---------5-------------------------------------5-----------------------------4-------------4------------
A|--2---------3--------4-----5---------------4------3--------5-----4-----------0--2-------------2----------0h2--
E|------------------2-----3---------5h5p--2---------------3-----2---------0h3-------------------------0h3-------



E|------------------------------------------------------
B|------------------------------------------------------
G|------------------------------------------------------
D|-----5---------------7---------------9-----7-------7--
A|--2----------0h2--5----------0h2--7-----5-------5-----
E|--------0h3-------------0h3---------------------------



E|-----------------------------------------
B|-----------------------------------------
G|-----------------------------------------
D|-----------------------------------8---7-
A|-------2-------5-------7-------8-6---5---
E|-0-0-0---0-0-3---0-0-5---0-0-6-----------
http://www.guitartabcreator.com
Guitar Tab Creator is intended to store guitar tab created through the tool. It currently does not support in-line text editing. Any text you place in here will be lost. If you need to comment on your tab, please use the "Tab Notes" section located below.