NiteStalker.

(/) Slide Up  (\) Slide Down  (h) Hammer On  (p) Pull Off  (b) Bend (r) Release (v) Vibrato


E|--------------------------------------------------------------------------------
B|--------------------------------------------------------------------------------
G|---2-----------2-----------3h5-----5h7------2-----------2-----------3h5-----5h7-
D|-2-----------2-----------3-------5--------2-----------2-----------3-------5-----
A|-----0-0-0-0-----0-0-0-0----------------------0-0-0-0-----0-0-0-0---------------
E|--------------------------------------------------------------------------------



E|-------------------------------
B|-------------------------------
G|---------------------7---5---4-
D|---2---------5---7-5---3---2---
A|-0---0-0-0-3---5---------------
E|-------------------------------
http://www.guitartabcreator.com
Guitar Tab Creator is intended to store guitar tab created through the tool. It currently does not support in-line text editing. Any text you place in here will be lost. If you need to comment on your tab, please use the "Tab Notes" section located below.