Madness Mania.

(/) Slide Up  (\) Slide Down  (h) Hammer On  (p) Pull Off  (b) Bend (r) Release (v) Vibrato
E|-0-0-0-0-0-0-0-0-0-0-1---0-0-0-0-0-0-0-0-0-0-3---0-0-0-0-0-------------------------
B|-----------------------3-----------------------5-----------0---3---3---3---3---5---
G|-------------------------------------------------------------2---5p--5p--5p--5---7-
D|-----------------------------------------------------------------------------------
A|-----------------------------------------------------------------------------------
E|-----------------------------------------------------------------------------------



E|-----------------------------------------------------------------------------------------------------------------
B|-----------------------------------------------------------------------------------------------------------------
G|-----------------------------------------------------------------------------------------------------------------
D|--2--------5-----7-----------------------------------------7-----5-----4-----2-----2-----5-----------------------
A|-----0--3-----5--------5-----4-----2-----2-----4-----5--5-----3-----2-----0-----0-----3--------5-----4-----------
E|--------------------3-----2-----0-----0-----2-----3-----------------------------------------3-----2-----0--------
http://www.guitartabcreator.com
Guitar Tab Creator is intended to store guitar tab created through the tool. It currently does not support in-line text editing. Any text you place in here will be lost. If you need to comment on your tab, please use the "Tab Notes" section located below.