Bow to The sword

(/) Slide Up  (\) Slide Down  (h) Hammer On  (p) Pull Off  (b) Bend (r) Release (v) Vibrato


E|-------------------------------------------------------------------------------------------
B|-------------------------------------------------------------------------------------------
G|---2---------3---5---------2---------------------------3---5---------2---------------------
D|-2---------3---5---------2-----------3---5---2-------3---5---------2-----------5---3---2---
A|-----0-0-0---------0-0-0-----0-0-0-3---5---2---0-0-0---------0-0-0-----0-0-0-5---3---2-----
E|-------------------------------------------------------------------------------------------



E|---------------------------------------------------------------------------------
B|---------------------------------------------------------------------------------
G|---------------------------------------------------------------------------------
D|-------------3---2---------5---4---------7---5-----5-------------5-3-------------
A|---2/------3---2---------3---2---------5---3-----3-----2---4---5-----6-5-3---3---
E|-0---0-0-0---------0-0-0---------0-0-0---------------0---2---3-------------3-----
http://www.guitartabcreator.com
Guitar Tab Creator is intended to store guitar tab created through the tool. It currently does not support in-line text editing. Any text you place in here will be lost. If you need to comment on your tab, please use the "Tab Notes" section located below.