New Song

(/) Slide Up  (\) Slide Down  (h) Hammer On  (p) Pull Off  (b) Bend (r) Release (v) Vibrato


E|-----------------------------------------------------------------------------------5-----5-----
B|--------------------------------------------------------------------5--7--8--7--8-----8--------
G|----------------------------------------2--4--2--4--4/5--4--5--5/7-----------------------------
D|--7--7--7-----------------2-----2--4/5---------------------------------------------------------
A|--7--7--7--------2--4--5-----5-----------------------------------------------------------------
E|--5--5--5--5--5--------------------------------------------------------------------------------



E|--7--7h8--7h8--7h8--7h8--7h8p7------7------
B|--------------------------------10-----10--
G|-------------------------------------------
D|-------------------------------------------
A|-------------------------------------------
E|-------------------------------------------
http://www.guitartabcreator.com
Guitar Tab Creator is intended to store guitar tab created through the tool. It currently does not support in-line text editing. Any text you place in here will be lost. If you need to comment on your tab, please use the "Tab Notes" section located below.