Air 2

(/) Slide Up  (\) Slide Down  (h) Hammer On  (p) Pull Off  (b) Bend (r) Release (v) Vibrato

E|--0-----0-----0-----0-----|--0----5-----------------------------------
B|--1-----1-----1-----1-----|--1-------6--3-----0--1--0-----------------
G|--0-----0-----2-----2-----|--2-------------5--------0-----2--0--------
D|--------------------------|-------3-----4-----0-----0--------0--------
A|--3--3--2--2--0--0--------|-------------5-----------------------------
E|--------------------3--3--|--1----------------2-----3--3--------1-----



E|--3-----------3--------0--------------3--1--|--1-----------0--1--------------------
B|--------------------------------3--2--------|-----3--1--3--------3-----3-----------
G|-----3--2--3-----3--2-----3--2--------------|--2--2-----2-----------0-----2--0-----
D|-----2-----0--------2-----------------------|--0--0-----------------0--------------
A|--------------------4-----4-----0-----0-----|-----------3-----3-----2-----2--------
E|--0-----------------------------------------|--------------------------------------



E|--------1--0--|--0--------2--3-----------0--------------|-----------------------------
B|--1--0--------|--1--------3-----1-----3--------3-----1--|--0--------0--1-----0--------
G|--------------|--0--------0-----0--5-----0--2-----2-----|--0--2--2--------------2--0--
D|--------------|-----------------2--4--------------------|--0-----2--------0--0-----0--
A|--------------|--3--3--2--2-----0--0--------------------|--------3--------0--------2--
E|--3-----3-----|-----------------------------2-----2-----|--3-----------------2-----3--
http://www.guitartabcreator.com
Guitar Tab Creator is intended to store guitar tab created through the tool. It currently does not support in-line text editing. Any text you place in here will be lost. If you need to comment on your tab, please use the "Tab Notes" section located below.