Air

(/) Slide Up  (\) Slide Down  (h) Hammer On  (p) Pull Off  (b) Bend (r) Release (v) Vibrato


E|--0-----0-----0-----0-----0--5-----------------------------|--3-----------3--------0-----------
B|--1-----1-----1-----1-----1-----6--3-----0--1--0-----------|-----------------------------------
G|--0-----0-----2-----2-----0-----------5--------0--2--------|-----3--2--3-----3--2-----3--2-----
D|-----------------------------3-----4-----0-----0-----0-----|-----2-----0--------2--------------
A|--3--3--2--2--0--0-----------------5-----------------0-----|--------------------4-----4--------
E|--------------------3--3--1--------------2-----3--------1--|--0--------------------------------



E|--------3--1--1--|-----------0--1-----------------------1--0--0--|--------2h3-----------0--
B|--3--2-----------|--3--1--3--------3-----3--------1--0--------1--|--------3----1-----3-----
G|--------------2--|--2-----2-----------0-----2--0--------------0--|--------0----0--5-----0--
D|--------------0--|--0-----------------0-----0--------------------|-------------2--4--------
A|--0-----0--------|--------3-----3-----2-----2-----------------3--|--3--2--2-------0--------
E|-----------------|--------------------------------3-----3--------|-------------------------



E|-----------------------------------------
B|-----3-----1--0--------0--1-----0--------
G|--2-----2-----0--2--2--------------2--0--
D|--------------0-----2--------0--0-----0--
A|--------------------3--------0--------2--
E|--2-----2-----3-----------------2-----3--
http://www.guitartabcreator.com
Guitar Tab Creator is intended to store guitar tab created through the tool. It currently does not support in-line text editing. Any text you place in here will be lost. If you need to comment on your tab, please use the "Tab Notes" section located below.