Own

(/) Slide Up  (\) Slide Down  (h) Hammer On  (p) Pull Off  (b) Bend (r) Release (v) Vibrato
E|------------------------------------------------------------------------------------
B|------------------------------------------------------------------------------------
G|------------------------------------------------------------------------------------
D|------------------------------------------------------------------------------------
A|--0--3--0--0--5--0--0--0--3--0--0--0------------3--0--0--0--5--0--0--0--3v--2v------
E|----------------------------------------0--0----------------------------------------



E|--------------------------------------------------------------------------------
B|--------------------------------------------------------------------------------
G|--------------------------------------------------------------------------------
D|--------------------------------------------------------------------------------
A|--0--3--0--0--5--0--0--0--3--0--0--0------------3--0--0--0--5--0--0--0--3v--4v--
E|----------------------------------------0--0------------------------------------



E|------------------------------------------------------------------------------------------------
B|------------------------------------------------------------------------------------------------
G|------------------------------------------------------------------------------------------------
D|------------------------------------------------------------------------------------------------
A|------------------------------------------------------------------------------------------------
E|--5--5--7--5--6--5--7----0--0--0----0--0--0--0----3--3--5--3--4--3--5----0--0--0----0--0--0--0--



E|---------------------------------------------------------------------------
B|---------------------------------------------------------------------------
G|---------------------------------------------------------------------------
D|---------------------------------------------------------------------------
A|---------------------------------------------------------------------------
E|--3--3--5--3--4--3--5----0--0--0------0--0--0----3----3--4--5--0--3--4--5--



E|-------------------------------------------------------------------------------------
B|-------------------------------------------------------------------------------------
G|-------------------------------------------------------------------------------------
D|-------------------------------------------------------------------------------------
A|-------------------------------------------------------------------------------------
E|--5--5--7--5--6--5--7----0--0--0----0--0--0----3--3--5--3--4--3----0--0--0--0--0--0--



E|---------------------------------------------------------------------------------------------
B|---------------------------------------------------------------------------------------------
G|---------------------------------------------------------------------------------------------
D|---------------------------------------------------------------------------------------------
A|------------------------------------------------------------------------------7--5-----------
E|--5--5--7--5--6--5--7----0--0--0----0--0--0----3----3--4--5--0--3--4--5----0--------7--5--0--



E|----------------------------------------------------------------------------------------------------
B|----------------------------------------------------------------------------------------------------
G|----------------------------------------------------------------------------------------------------
D|----------------------------------------------------6-----------------------------------------------
A|----------------------------------------------6--5-----------------------------------------7--7--7--
E|--5----5--5--5--5--5----4----4--4--4--4--4-------------6----6--6--6--6--6--6----8--8--8-------------



E|-----------------------------------------------------------------------------------------------------
B|-----------------------------------------------------------------------------------------------------
G|-----------------------------------------------------------------------------------------------------
D|-----------------------------------------------6-----------------------------------------------------
A|-----------------------------------------6--5--------------------------------------------------------
E|--5----5--5--5--5--5--5----4--4--4--4-------------6----6--6--6--6--6--6----8--8--8--8----9--9--9--9--



E|--
B|--
G|--
D|--
A|--
E|--
http://www.guitartabcreator.com
Guitar Tab Creator is intended to store guitar tab created through the tool. It currently does not support in-line text editing. Any text you place in here will be lost. If you need to comment on your tab, please use the "Tab Notes" section located below.