The Big Kiss

(/) Slide Up  (\) Slide Down  (h) Hammer On  (p) Pull Off  (b) Bend (r) Release (v) Vibrato


E|------------------|----------------------------|--
B|------------------|----------------------------|--
G|--12b14p12--------|----------12------11h12p11--|--
D|------------------|------14--------------------|--
A|------------------|--14------------------------|--
E|------------------|----------------------------|--



E|--------------------------------------|--
B|--------------------------------------|--
G|--10--12--14----------14--16--17------|--
D|--------------------------------------|--
A|--------------------------------------|--
E|--------------------------------------|--



E|-------------------------------------------|---------------------------------------------|--
B|------------------------12/17--18--17------|--------------------------12/17--18--17------|--
G|--16b17r16------12-------------------------|--16----16b17r16----12-----------------------|--
D|-------------------------------------------|---------------------------------------------|--
A|-------------------------------------------|---------------------------------------------|--
E|-------------------------------------------|---------------------------------------------|--



E|--------------------------12/15--17--19------|--17/18--17----\15h17p15h17p15h17p15p14h15p14----------|--
B|---------------------------------------------|-------------------------------------------------------|--
G|--17----16b17r16----12-----------------------|-----------------------------------------------14------|--
D|---------------------------------------------|-------------------------------------------------------|--
A|---------------------------------------------|-------------------------------------------------------|--
E|---------------------------------------------|-------------------------------------------------------|--



E|--------------------------------|--
B|--------------------------------|--
G|--11b12r11----8----7------------|--
D|--------------------------------|--
A|--------------------------------|--
E|--------------------------------|--
http://www.guitartabcreator.com
Guitar Tab Creator is intended to store guitar tab created through the tool. It currently does not support in-line text editing. Any text you place in here will be lost. If you need to comment on your tab, please use the "Tab Notes" section located below.