improvisation

(/) Slide Up  (\) Slide Down  (h) Hammer On  (p) Pull Off  (b) Bend (r) Release (v) Vibrato

E|-----------0---------------0---------------5-----------------0---------------0---------------5--
B|--------1---------------1---------------5-----------------1---------------1---------------5-----
G|-----2---------------2---------------5-----------------2---------------2---------------5--------
D|--3---------------2---------------0-----------------3---------------2---------------0-----------
A|------------------------------------------------------------------------------------------------
E|------------------------------------------------------------------------------------------------



E|--------------------------------------------------------------
B|----------5--6--8--10--12--------------5/6--5--3--1-----------
G|-----------------------------------------------------2--------
D|--------------------------------------------------------------
A|--------------------------------------------------------------
E|--------------------------------------------------------------
bpm=90
http://www.guitartabcreator.com
Guitar Tab Creator is intended to store guitar tab created through the tool. It currently does not support in-line text editing. Any text you place in here will be lost. If you need to comment on your tab, please use the "Tab Notes" section located below.